Oops, an error
Loading. Please wait.

Mr. Jones, O Pequeña Semblanza De Una Familia Tab

version 1
version 1

Whole song

140 views 3 this week
no commentswrite comment
1 2 3 4 5
3 more votes to show rating
add to favorites
launch autoscroll
font size
0
reset
how to read this tab
guitar tuner
×
Best way to learn
"Mr. Jones, O Pequeña Semblanza De Una Familia"
Autoscroll
slow
fast
+/-
esc
set tempo
stop
Hola, aca les mando el solo y el final de Mr. Jones, a mi me suena bien,
quizas los ligados rapidos suenen mas o menos al principio por la velocidad,
pero estan bien... cualquier comentario: osollegui@ (Guille)


Solo:
                   __estos ligados son rapidos__
||-----------------------------------------------
||--/8---------------10--(13p10p8)x10)----10-10\-
||-----9-9-9-9-9-/11-----------------------------
||-----------------------------------------------
||-----------------------------------------------
||-----------------------------------------------

(este riff va en el solo y durante casi todo el tema)
||--------------------------------------------------------------
||--------------------------------------------------------------
||--------------------------------------------------------------
||----------2-2-4-2-----------4-4-6-4---------------------------
||------3-4---------------5-6----------7-7-5-5-4-4--------------
||--5-5---------------7-7--------------------------7-7-5--0-3-0-


Final:

||----9-----8-----7----5----------------------------------------
||------------------------------------12(14)12-10---------------
||--9---9-8---8-7---7--5h6p5h6p5----9-------------11-9----------
||--------------------------------------------------------------
||------------------------------------------------------7-6-5-4-
||--------------------------------------------------------------
Suggest correction
Give kudos to tab author, rate the tab!
1 2 3 4 5
comments
print report bad tab
guest
You may want to rate the tab now too:
select rating
Wanna post a correction for this tab? Suggest correction