Oops, an error
Loading. Please wait.

Mr. Jones, O Pequeña Semblanza De Una Familia Tab

version 3
version 3

Whole song

26 views 1 this week
no commentswrite comment
1 2 3 4 5
3 more votes to show rating
add to favorites
launch autoscroll
font size
0
reset
how to read this tab
guitar tuner
Autoscroll
slow
fast
+/-
esc
set tempo
stop
Intro: A7 B7 E7

     Riff 1
1) Mr. Jones abrió la puerta
            Riff2
y vio a su madre recién muerta
     Riff3
y la sangre en el chaleco se limpió.


1) Guardó a su madre en el ropero,
le puso más leña al fuego,
el invierno muy crudo se avecinó.


                 D7
2) Llamó a su esposa y le dijo,
             A7
Mamá está muerta en el ropero
         B7                  E7
Por supuesto, si yo la asesiné,


1) Ella puso mal la mesa,
le hundí un hacha en la cabeza
y la sangre el tapizado me manchó (Ay que pena nena)


Solo: Riff 1 + Riff 2 + Riff 3 (x2)

       A7
Y Mr. Jones trabajaba
       B7
y su esposa asesinaba
        E                    Riff4
y los chicos correteaban por ahí.

1)Se comían los pajaritos,
los perros y los gatitos,
y otros bichos que vagaban por ahí.

2) Y llegó la policía,
con dos carros y un tranvía,
para toda la familia encarcelar

      Riff1
Yo no sé por qué, sargento,
      Riff2
me lleva el destacamento,
      Riff3
si somos una familia muy normal
      Riff3
si somos una familia muy normal
      Riff3                  Riff5  G#7 A7
si somos una familia muy normal.


Riff1:

1 ------------------|
2 -------------7p5--|
3 -----6-6-9-9------|
4 -7-7--------------|
5 ------------------|
6 ------------------|

Riff2:

1 --------------------|
2 ---------------9p7--|
3 -----8-8-11-11------|
4 -9-9----------------|
5 --------------------|
6 --------------------|

Riff3:

1 --------------------------|
2 -5-5----------------------|
3 -----7-7-5-5-4-4----------|
4 -----------------7-5-4-2--|
5 --------------------------|
6 --------------------------|


Riff4:

1 ----------|
2 ----------|
3 ----------|
4 ----------|
5 ----------|
6 -5-7-5-0--|


Riff5:

1 ----12-----12------12-------|
2 -12---12-11--11-10----10-9--|
3 ----------------------------|
4 ----------------------------|
5 ----------------------------|
6 ----------------------------|


Espero que les sirva gente, cualquier duda
pueden mandarme un mail a sebakpon@
Un abrazo
Suggest correction
Give kudos to tab author, rate the tab!
1 2 3 4 5
comments
print report bad tab
guest
You may want to rate the tab now too:
select rating
Wanna post a correction for this tab? Suggest correction