Oops, an error
Loading. Please wait.

Quizás Porque Tab

version 1
version 1

Whole song

Interactive

104 views 1 this week
no commentswrite comment
1 2 3 4 5
3 more votes to show rating
add to favorites
×
Save as Personal and add changes to this tab that will be seen only by you. Learn more ›
×
You can save this tab as Personal to edit and correct it or add notes. All changes will be seen only by you. Learn more »
save as personal
new!
launch autoscroll
font size
0
reset
how to read this tab
guitar tuner
Autoscroll
slow
fast
+/-
esc
set tempo
stop
Estos son los acordes no frecuentes que se utlizan:
Dmaj7  C/B  A7sus4  A7  Dsus4 Bm/A  E7
--3-----x------0----0----3------2---0--
--3-----1------3----2----3------3---3--
--3-----0------0----0----2------4---1--
--0-----2------2----2----0------4---0--               --x-----2------0----0----x------0---2--
--x-----x------x----x----x------x---0--


Empieza con unos arpegios rápidos de D que se escuchan bien bajo y despues sigue con esto:

-2--3--2--8/10-8-------------------------------------- 
-3--3--3---------10-8---8h10b8------------------------
-2--2--2--------------9--------9-7---7h9b7-----------7b
-0---------------------------------9-------9-7---7h9---
-----------------------------------------------9-------
-------------------------------------------------------


--8/10-8------------------------------- 
---------10-8---8h10b8-----------------
--------------9--------9-7---7h9b7---7b
---------------------------9-------9---
--------------------------------------- ---------------------------------------

              D
  Quizas porque no soy un buen poeta
           Dmaj7
  puedo pedirte que te quedes quieta
            Bm    F#m        C C/B C/A A7sus4 A7
  hasta que yo termine estas pala-a-bras

  Quizas porque no soy un gran artista
  puedo decir 'tu pintura esta  lista'
  y darte orgulloso este mamarracho

   G            A7             Dsus4
  Quizas porque no soy de la nobleza
      D      F#                   Bm  Bm/A
  puedo nombrarte mi reina y princesa
            E         A7sus4  A7         
  y darte coronas de papel y cigarrillo


  Quizas porque soy un mal comerciante
  no pido nada a cambio de darte
  lo poco que tengo, mi vida y mis sueños


  Quizas porque no soy un buen soldado
  dejo que ataques de frente y costado
  cuando discutimos nuestros proyectos

            D       F#        Bm  A  E7
  Quizas porque no soy nada de em em so
           A7sus4           D
  es que estas aqui en mi lecho

-------8/10-8------8-------------------
-8/10----------10-----10---8---8h10b8b-
-------------------------9-------------
---------------------------------------
---------------------------------------
---------------------------------------

------------------------- 
-------------------------
-9-7---7h9b7-----------7b
-----9-------9-7---7h9---
-----------------9-------
-------------------------

-----8---10-8----8-----------------------------------
8/10----------10------10-8---8h10b8------------------
---------------------------9--------9-7---7h9-7---7b-
----------------------------------------9-------9----
-----------------------------------------------------
-----------------------------------------------------
Suggest correction
Give kudos to tab author, rate the tab!
1 2 3 4 5
comments
print report bad tab
guest
Wanna post a correction for this tab? Suggest correction