Oops, an error
Loading. Please wait.

Quizás Porque Tab

version 2
version 2

Whole song

Interactive

89 views 1 this week
no commentswrite comment
1 2 3 4 5
3 more votes to show rating
add to favorites
launch autoscroll
font size
0
reset
how to read this tab
guitar tuner
Autoscroll
slow
fast
+/-
esc
set tempo
stop
Help us to improve Ultimate-Guitar.com Take our survey!
×
Aprovechare para dedicar esta rola a mi amiga J.E.M. para recordarle
que la quiero muchisimo.
Para que puedas tocar esta supercancion de la mejor forma 
debes hacerlo con dos guitarras, en especial el intro y el final.
El intro lo especifico en las partes donde debemos para que no
quede dudas, en un momento; solo debes presionar las cuerdas  con fuerza 
para que suene de forma particular (con la mano izquierda) sin
hacerlo con la mano derecha. Eso le da un efecto muy bueno. Bueno
ahi les va. Practicala es facil y suena muy bien.


        INTRO         PRIMERA GUITARRA :       


      ------simple--------solo tocar cuerda con la mano izquierda 

  E  -2--3--2--8s10--8--!-------------------------------------------! 
  B  -3--3--3-----------!--10--8---8--10--8-------------------------!
  G  -2--2--2-----------!--------9----------9-7---7-9-7-----------7-!
  D  -0-----------------!-----------------------9-------9-7---7-9---!
  A  -------------------!-----------------------------------9-------!
  E  -------------------!-------------------------------------------!

       INTRO         SEGUNDA GUITARRA :
   

  E  -2--3------2--------3------2---------2---3--2--
  B  -3----3------3--------3------2-------3---3--3--
  G  -2------2------2--------3------2-----2---2--2--
  D  -0-----------------------------------0---------
  A  -----------------------------------------------
  E  -----------------------------------------------


  A)

     D  A  G/B    A/C#     D 
  Qui-zas  por  que  no soy un buen poeta
           D7 
  puedo pedirte que te quedes quieta
            Bm    F#m          C  G/B  A 
  hasta que yo termine estas pala-a-bras

 
  A)
 
  Quizas porque no soy un gran artista
  puedo decir: tu pintura esta  lista
  y darte orgulloso este mamarracho


  B)

   G          A7*          Dsus4    D
  Quizas porque no soy  de  la   nobleza
            F#                   Bm  
  puedo nombrarte mi reina y princesa
            E          A         
  y darte coronas de papel de cigarrillo

  B)

  Quizas porque soy un mal negociante 
  no pido nada a cambio de darte
  lo poco que tengo, mi vida y mis sueños


  A)

  Quizas porque no soy un buen soldado
  dejo que ataques de frente y costado
  cuando discutimos nuestros proyectos

  C)

  D  A  G/B  A/C#  D      F#         Bm  A  E
   Qui zas   por  que no soy nada de..e..e..so
               A               D-C#/D
  es que hoy estas aqui en mi lecho    

        FINAL :

    PRIMERA GUITARRA :

      (la ultima parte 121000 va fuerte hacia abajo)

         D       D        C#/D       C#/D        

   e ---2------2----------1----------1---------------
   B -----3------3----------2----------2-------------
   G -------2------2----------1----------1-----------
   D ------------------------------------------------
   A ------------------------------------------------
   E ------------------------------------------------

   e -----2------2--------1----------1----------1-----
   B -------3------3--------2----------2--------2-----
   G ---------2------2--------1----------1------1-----
   D -------------------------------------------0-----
   A -------------------------------------------0-----
   E -------------------------------------------0-----


    SEGUNDA GUITARRA :
      (es solo un acompañamiento que debe sonar despacio)


  e -------8s10-8------8-------------------------------------------
  B -8s10----------10-----10---8---8s10s8p-------------------------
  G -------------------------9-------------9-7---7s9s7-----------7-
  D -------------------------------------------9-------9-7---7s9---
  A -------------------------------------------------------9-------
  E ---------------------------------------------------------------

   

  E  -------8-----10-8----8-----------------------------------
  B  --8s10------------10------10-8---8s10-8------------------
  G  -------------------------------9--------9-7---7h9-7---7--
  D  --------------------------------------------9-------9----
  A  ---------------------------------------------------------
  E  ---------------------------------------------------------


    ACORDES :

           C#/D       A/C#        G/B        D7          A7*


   E   ------1-----------0----------0----------2-----------2--------
   B   ------2-----------5----------3----------2-----------1--------
   G   ------1-----------0----------0----------2-----------1--------
   D   ------0-----------0----------0----------0-----------1--------
   A   ------0-----------4----------2----------0-----------0--------
   E   ------x-----------x----------0----------0-----------0-------


                     -----------------------------------
                    !                                   !
                    !  Dudas y/o consultas escribir a : !
                    !                                   !
                    !     berly_gac@         !
                    !                                   !
                     -----------------------------------
Suggest correction
Give kudos to tab author, rate the tab!
1 2 3 4 5
comments
print report bad tab
guest
You may want to rate the tab now too:
select rating
Wanna post a correction for this tab? Suggest correction