Oops, an error
Loading. Please wait.

Rasguña Las Piedras Tab

119 views 1 this week
no commentswrite comment
1 2 3 4 5
3 more votes to show rating
add to favorites
launch autoscroll
font size
0
reset
how to read this tab
guitar tuner
×
Best way to learn
"Rasguña Las Piedras"
Autoscroll
slow
fast
+/-
esc
set tempo
stop
G            D
Detrás de las paredes
     Em              Bm
que ayer te han levantado
     C         G/B          F
te ruego que respires todavía.  [Dsus4-D]
  G           D
Apoyo mis espaldas
    Em            Bm
y espero que me abraces
   C            Bm         F        D
atravesando el muro de mis días.

      C        G/B
Y rasguña las piedras,
      C        G/B
y rasguña las piedras.
      C         Em  D     C    G/B    Am7    D
y rasguña las pie - e - dras - haa - aas - ta mí.

Inter:(G-D/F#-C/E-D-C)

    G           D7
E/------------------------------------------
B/------------------------------------------
G/------------------------------------------
D/---------------0-2----3-4-----------------
A/----2---3-4-------------------------------
E/--3---------------------------------------

Apenas perceptibles, escucho tus palabras
se acercan las bandas de rock and roll
y sacuden un poco,
las paredes gastadas
y siento las preguntas de tu voz.

Y rasguña las piedras,
y rasguña las piedras.
y rasguña las piedras hasta mí.

Inter x 2

 (G  C) x2

Am7                           D
    Y si estoy cansado de gritarte
Am7                C          D#  Dsus4 D7
    es que sólo quiero despertarteeeeeeeeee.

Y por fin veo tus ojos
que lloran desde el fondo
y empiezo a amarte con toda mi piel.
Y escarbo hasta abrazarte
y me sangran las manos
pero qué libres vamos a crecer

Y rasguña las piedras,
y rasguña las piedras.
y rasguña las piedras hasta mí.

E/-------------3-3---3-3-----3-3----3-3-----
B/---0-slide-3------3-------3-----3---------
G/------------------------------------------
D/------------------------------------------
A/------------------------------------------
E/------------------------------------------

Y rasguña las piedras,
y rasguña las piedras.
y rasguña las piedras hasta mí.


    G           D7                      G
E/--------------------------------------3---//
B/--------------------------------------3---//
G/--------------------------------------4---//
D/---------------0-2----3-4-------------5---//
A/----2---3-4---------------------------5---//
E/--3-----------------------------------3---//


Acordes especiales
             D#
     D/F#   /      C/E  Am7  D7  G/B       ()=opcional
E/   (2)   3    3    3    0    2   3
B/    3    4    4    1    1    1   3
G/    2    3    3    0    0    2   0
D/    0    5    1    2    2    0   0
A/    0    6    x    x    0    x   2
E/    2    x    x    x    x    x   x


Bue, aca con mi segunda trascripción,
saludos a los chicos del grilli monte grande
dudas o comentarios--> gabo__45@

cancion dedicada a mi hermano Ale
Suggest correction
Give kudos to tab author, rate the tab!
1 2 3 4 5
comments
print report bad tab
guest
You may want to rate the tab now too:
select rating
Wanna post a correction for this tab? Suggest correction