Oops, an error
Loading. Please wait.

Estallando Desde El Océano Bass

by Sumo
416 views 1 this week
no commentswrite comment
1 2 3 4 5
3 more votes to show rating
add to favorites
launch autoscroll
font size
0
reset
guitar tuner
×
Best way to learn
"Estallando Desde El Océano"
Autoscroll
slow
fast
+/-
esc
set tempo
stop
()s: arrastrar desde esa nota a la proxima.

Verso:

  A
G---------9-----------12-11-------
D---(5)s7---(10)s12-12-------14-12-
A-0-------------------------------
E---------------------------------

She had my head on a plate
With her sweet and sour sauce
She was riding in her car
I was riding on my horse
Neck and neck along the road
Well, I have nothing left to hide
So, what a heck
Firefly cars, women rushing past
The road was long and the race was fast
Gradually I fell behind
It was the blind leading the blind
It was the blin leading the blind

Estribillo

  Bm      G        Em
G--4-4---4----------9--9----9-9----
D----------5-5---5-----------------
A-2-2-2-2----------7-7-7-7-7-7-7-7-
E---------3-3-3-3------------------

Over the hills, over the prairies
Down inthe pampa, up in the tundra
And in Paris in spring. And in old Pekin
And in Katmandu. And in Xanadu
I'm bursting out of the ocean
I'm bursting out of the ocean

Verso 2:

  A
G---------9-----------12-11-------
D---(5)s7---(10)s12-12-------14-12-
A-0-------------------------------
E---------------------------------

Uh,Uh, it was another gas station
Uh,Uh, it was another you
Uh,Uh, it was another gas station
Uh,Uh, it was another you, and that's true
Babe, that's true and that's true
Gimme this and gimme that
I've got no need for your bipperty,
Bipperty, bipperty
Just my horse and me
Just my horse and me
And in Timbuktu (what?)

Estribillo final:

  Bm      G        Em
G--4-4---4----------9--9----9-9----
D----------5-5---5-----------------
A-2-2-2-2----------7-7-7-7-7-7-7-7-
E---------3-3-3-3------------------

Over the hills, over the prairies
Down inthe pampa, up in the tundra
And in Paris in spring. And in old Pekin
And in Katmandu. And in Xanadu
I'm bursting out of the ocean
I'm bursting out of the ocean
I'm bursting out of the ocean
I'm bursting out of the ocean
Shoot out
Burst out
Suggest correction
Give kudos to tab author, rate the tab!
1 2 3 4 5
comments
print report bad tab
guest
You may want to rate the tab now too:
select rating
Wanna post a correction for this tab? Suggest correction