Oops, an error
Loading. Please wait.

Arbol Tab

18 views 1 this week
no commentswrite comment
1 2 3 4 5
3 more votes to show rating
add to favorites
×
Save as Personal and add changes to this tab that will be seen only by you. Learn more ›
×
You can save this tab as Personal to edit and correct it or add notes. All changes will be seen only by you. Learn more »
save as personal
new!
launch autoscroll
font size
0
reset
how to read this tab
guitar tuner
Autoscroll
slow
fast
+/-
esc
set tempo
stop
Intro:
---12--10----------------------------------------------------------------
-----------12---10--------10---12-----------10--------------------------
---------------------11------------9---11--------9b10b9---7---7---7---7-
-0---0---0----0----0----0----0---0---0----0----0--------0---0---0---0---
------------------------------------------------------------------------
------------------------------------------------------------------------

---12---10---------------------------------------------------------------
-----------12---10--------10---12------------10--------------------------
---------------------11-------------9---11--------9b10b9---7---7---7---7-
-0---0---0----0----0----0----0----0---0----0----0--------0---0---0---0---
-------------------------------------------------------------------------
-------------------------------------------------------------------------

-----------3---2---------------0---------------0-------------|
---------------------------3-------3-------3-------3---------|
---4---2-----------2/43----------------3---------------------|
-0---0---0---0---0-------0---0---0---0---0---0---0-----------|
-----------------------------------------------------0-------|
-------------------------------------------------------------|

---12--10----------------------------------------------------------------
-----------12---10--------10---12------------10--------------------------
---------------------11-------------9---11--------9b10b9---7---7---7---7-
-0---0---0----0----0----0----0----0---0----0----0--------0---0---0---0---
-------------------------------------------------------------------------
-------------------------------------------------------------------------

---12---10-----------------5---7-----------5-------------------------
---12---10---12---10---7---7---8---5---7---6---6-5-3---3---3---3---3-
-------------12---11---7-----------6---7-------5-4-2---2---2---2---2-
-0----0----0----0----0---0---0---0---0---0---0-------0---0---0---0---
---------------------------------------------------------------------
---------------------------------------------------------------------

------------3---2-----------------0---------------0-----------|
------------------------------3-------3-------3-------3-------|
----4---2------------2/43-----------------3-------------------|
--0---0---0---0---0---------0---0---0---0---0---0---0---------|
--------------------------------------------------------0-----|
--------------------------------------------------------------|

riff 1
|--------5--------------5---------------5---------------5---------
|---3-------3-------3-------3-------3-------3-------3-------3-----
|---------------2---------------3---------------3---------------2-
|-0---0---0---0---0---0---0---0---0---0---0---0---0---0---0---0---
|-----------------------------------------------------------------
|-----------------------------------------------------------------

sobre riff 1
Árbol, se quema
y arde, se cae.
A este árbol nadie lo va a levantar.

Tierra, se quiebra,
se abre y se cae.
A este suelo nadie lo va a caminar.

Todo se derrumbara en mí
si esto sigue así.

Todo se derrumbara en mí
                D   C9 Em7 C9
si esto sigue así.

D     C9       Em7
Uh, Nadar solo,
     C9            D
o ahogarme en ese río.
   C9
Pregúntame
Em7     C9           D
   si algún secreto cuido
     C9   Em7 C9
para vos.

D D5  D D5 

D          D5 
Árbol, se quema
  D        D5 
y arde, se cae.
D            D5             D        D5 
A este árbol nadie lo va a levantar.

D
Todo se derrumbara en mí
D5            D
si esto sigue así.

D
Todo se derrumbara en mí
D5              D   C9 Em7 C9
si esto sigue así.

D     C9       Em7
Uh, Nadar solo,
     C9            D
o ahogarme en ese río.
   C9
Pregúntame
Em7     C9           D
   si algún secreto cuido
    C9          Em7
O nadar con vos,
   C9          D
desnudos en el río.
  C9           Em7
Sabes muy bien
       C9            D
que no hay secretos míos
      C9   Em7 C9
para vos

Coda
|-------5---------------5---------------5---------------5------
|---3-------3-------3-------3-------3-------3-------3-------3--
|---------------2---------------3---------------3--------------
|-0---0---0---0---0---0---0---0---0---0---0---0---0---0---0----
|--------------------------------------------------------------
|--------------------------------------------------------------

---12---10-----------------------------------------------------|
-------------12---10--------10----12------------10-------------|
-----------------------11--------------9---11---------/9--7----|
-0----0----0----0----0----0----0----0----0----0----0-----------|
---------------------------------------------------------------|
---------------------------------------------------------------|

D5   C9
-5-  -0-
-3-  -3-
-3-  -0-
-0-  -2-
-x-  -3-
-x-  -x-

Links:


Suggest correction
Give kudos to tab author, rate the tab!
1 2 3 4 5
comments
print report bad tab
guest
Wanna post a correction for this tab? Suggest correction