Oops, an error
Loading. Please wait.

Dejar De Jugar Tab

15 views 1 this week
no commentswrite comment
1 2 3 4 5
3 more votes to show rating
add to favorites
launch autoscroll
font size
0
reset
how to read this tab
guitar tuner
Autoscroll
slow
fast
+/-
esc
set tempo
stop
Help us to improve Ultimate-Guitar.com Take our survey!
×
Intro (x2)
-----------------------------------------------------------------
-----------------------------------5---4-------------------------
-----------4---6-----------4---6-----------4---4---4---4---4---4-
---4---6-----------64/6-----------------------------------------
-0---0---0---0---0-------0---0---0---0---0---0---0---0---0---0---
-----------------------------------------------------------------

-----------------------------------------------------------------
-----------------------------------5---4---7---------------------
-----------4---6-----------4---6---------------6---4---4---4---4-
---4---6-----------64/6-----------------------------------------
-0---0---0---0---0-------0---0---0---0---0---0---0---0---0---0---
-----------------------------------------------------------------

Asus2                        C#m
Es un desafío dejar de jugar hoy.

-----------0---------------0---------------0-----------------0---
-------0---------------0---------------0---------------0---------
---6-----------6---6-----------6---6-----------6---6-------------
-----------------------------------------------------------------
-4---4---4---4---4---4---4---4---4---4---4---4---4---4---4-------
-----------------------------------------------------------------

Asus2                        C#m
Es problema mío si quiero pensar en vos.

-----------0---------------0---------------0-----------------0---
-------0---------------0---------------0---------------0---------
---6-----------6---6-----------6---6-----------6---6-------------
-----------------------------------------------------------------
-4---4---4---4---4---4---4---4---4---4---4---4---4---4---4-------
-----------------------------------------------------------------

intro (x1)

Asus2                               C#m
Tu espejo miro, me siento mejor conmigo.

-----------0---------------0---------------0-----------------0---
-------0---------------0---------------0---------------0---------
---6-----------6---6-----------6---6-----------6---6-------------
-----------------------------------------------------------------
-4---4---4---4---4---4---4---4---4---4---4---4---4---4---4-------
-----------------------------------------------------------------

Asus2                                    C#m  Asus2 C#m Asus2
Se quebró el reflejo, de arena quedé vestido.

-----------0---------------0---------------0-----------------0---
-------0---------------0---------------0---------------0---------
---6-----------6---6-----------6---6-----------6---6-------------
-----------------------------------------------------------------
-4---4---4---4---0---0---0---0---4---4---4---4---0---0---0-------
-----------------------------------------------------------------

C#m     Bsus2        Asus2     Bsus2
Modificar lo que no ves olvidando las reglas.
C#m       Bsus2     Asus2      Bsus2            C#m
Esta es la oportunidad, decime lo que quieras.

Solo: C#m C#m A A E A E A C#m Asus2 C#m Asus2 Asus2

C#m     Bsus2        Asus2     Bsus2
Modificar lo que no ves olvidando las reglas.
C#m       Bsus2     Asus2      Bsus2            Asus2
Esta es la oportunidad, decime lo que quieras.

Asus2 Bsus2
-0-    -2-
-0-    -2-
-2-    -4-
-2-    -4-
-0-    -2-
-x-    -x-

Links:


Suggest correction
Give kudos to tab author, rate the tab!
1 2 3 4 5
comments
print report bad tab
guest
You may want to rate the tab now too:
select rating
Wanna post a correction for this tab? Suggest correction