Oops, an error
Loading. Please wait.

Tercer Ojo Tab

29 views 1 this week
no commentswrite comment
1 2 3 4 5
3 more votes to show rating
add to favorites
×
Save as Personal and add changes to this tab that will be seen only by you. Learn more ›
×
You can save this tab as Personal to edit and correct it or add notes. All changes will be seen only by you. Learn more »
save as personal
new!
launch autoscroll
font size
0
reset
how to read this tab
guitar tuner
Autoscroll
slow
fast
+/-
esc
set tempo
stop
Intro: Riff 1
  Dm
|-----------------------3-----------------------------------|
|---------1------3--------3---------1------3--------0h1-0---|
|-----0h2----2------2-----------0h2----2------2-----------2-|
|-0------------0------0-----0------------0------0-----------|
|-----------------------------------------------------------|
|-----------------------------------------------------------|

sobre Riff 1
Es tu tercer ojo, abre ya tu luz.
Manos invisibles, pétalos de loto azul.

Bb             F   Gm           Dm    Dm/C
Hay un mar dormido en tu habitación,
  Bb            Am      Gm  Bb     Dm
y subo a la serpiente encadenada a vos.

     F       C       Dm
Todo lo que ves no existe,
       F       C     Gm     A     D7sus2
y todo lo que fue no sirve más.

sobre Riff 1
Llegas como el viento hasta mí.
Vivir es el paso a seguir.

Bb          F    Gm          Dm    Dm/C
Hay un asesino y es tu salvación,
  Bb            Am      Gm  Bb     Dm
y subo a la serpiente encadenada a vos.

     F       C       Dm
Todo lo que ves no existe,
       F       C     Gm     A
y todo lo que fue no sirve más.

Coda: Riff 2 (x8)
  Dm                     F               G      G7
|---------------------------------------------------|
|---------------------------------------------------|
|-----------------------------------------------10--|
|-7-7--9-9--10--10-9-9-/-10-10-10--10-10-9--9---9---|
|-5-5--5-5--5---5--5-5-/-8--8--8---8--8--10-10--10--|
|---------------------------------------------------|

D C Bb A G F E Eb
Riff 2 (x4)
D C Bb A G F E Eb
Riff 2 (x3)
Riff 3
  Dm                     F          G7
|---------------------------------------------|
|---------------------------------------------|
|-----------------------------------10-10-10--|
|-7-7--9-9--10--10-9-9-/-10-10-10---9--9--9---|
|-5-5--5-5--5---5--5-5-/-8--8--8----10-10-10--|
|---------------------------------------------|

Links:


Suggest correction
Give kudos to tab author, rate the tab!
1 2 3 4 5
comments
print report bad tab
guest
Wanna post a correction for this tab? Suggest correction