Oops, an error
Loading. Please wait.

De Verdad tab

26 views 1 this week
no commentswrite comment
1 2 3 4 5
3 more votes to show rating
add to favorites
×
Save as Personal and add changes to this tab that will be seen only by you. Learn more ›
×
You can save this tab as Personal to edit and correct it or add notes. All changes will be seen only by you. Learn more »
launch autoscroll
font size
0
reset
how to read this tab
guitar tuner
edit
Autoscroll
slow
fast
+/-
esc
set tempo
stop
Intro: 
LA - RE
     
Piensa cuando dices que me vas a dejar 
LA                  RE
que ya no me deseas libre quieres estar 
LA                        RE
no encontraras a nadie con quien puedas hablar 
LA                       RE
de verdad              hablar de verdad
         FA#m   MI    LA   RE             FA#m   MI      LA     RE
Si ya no estas conmigo no me voy a matar
LA                                  RE
no importa a donde mire amor no me va a faltar
LA                              RE
no encontraras a nadie que te pueda besar 
LA                              RE
de verdad            besar de verdad
          FA#m   MI    LA   RE             FA#m   MI      LA     RE


CORO
Mira mis ojos cuando digas que te vas 
                        LA       MI      RE
en serio crees que solo quiero jugar 
                     LA       MI      RE
estoy contigo porque sabes que te quiero que eres algo que no puedo dejar
                          LA        MI          FA#m            MI             LA      RE


Entiendo que mi vida no te llegue a gustar
LA                       RE
tanto loca y atrevida pero buena en realidad
LA                      RE
No encontraras a nadie con quien puedas gozar 
LA                       RE
de verdad                  gozar de verdad
          FA#m   MI    LA   RE           FA#m   MI      LA     RE

CORO

Punteo:
| |-------------------------------------------------------------------------------------------| |
| |-------------------------------------------------------------------------------------------| |
| |-------------------------------------------------------------------------------------------| |
| |------------7--9--10-b-12---10-b-12---10-b-12----9---7---7---10---9---7---9----7----7------| |    
| |----7-h-9-------------------------------------------------------------------------9--------| |
| |-------------------------------------------------------------------------------------------| |

| |-------------------------------------------------------------------------------------------------------| |
| |-------------------------------------------------------------------------------------------------------| |
| |-9-h-11--9------9--------------------------------------------9------9--11--11--9-----------------------| |
| |------------11-----11---9---7---10--9--7--9--7-----7-----11----11------------------11--9--7--9--7--9---| |
| |------------------------------------------------9------------------------------------------------------| |
| |-------------------------------------------------------------------------------------------------------| |                  

| |------------9--7-----7----------------------------------------------------9--7------7-----------9-b-11--12--9---------| |
| |------------------10---10--7---------------------------------------------------10-----10--7---------------------10----| |
| |--9-s-11----------------------9-------------------------------9-s-11--------------------------------------------------| |
| |----------------------------------10--9--7--9--7-----7----------------------------------------------------------------| |
| |---------------------------------------------------9------------------------------------------------------------------| |
| |----------------------------------------------------------------------------------------------------------------------| |


Piensa cuando dices que me vas a dejar 
LA                              RE
que ya no me deseas libre quieres estar 
LA                              RE
no encontraras a nadie con quien puedas gozar 
LA                              RE
de verdad                  gozar de verdad
          FA#m   MI    LA   RE            FA#m   MI      LA     RE

CORO  x2

Que no puedo dejar no no no puedo dejar no nos podemos dejar
LA         RE            LA          RE         LA           RE

| |-----------------------------------------------------------------------------------------------------------| |
| |------------10--12--13-13-13--12-10-10--13-12-10--12--10-----10---13-13-13-12-10-10-13-12-10-12-10-----10--| |
| |--9-h-11--------------------------------------------------11---------------------------------------11------| |     
| |-----------------------------------------------------------------------------------------------------------| |
| |-----------------------------------------------------------------------------------------------------------| |
| |-----------------------------------------------------------------------------------------------------------| |

| |---------------------------------------------------------------------------------------------------------| |
| |--12-s-10-12-s-10-12-s-10-12-s-10-14-12-10-10-10-10---12-s-10-12-s-10-12-s-10-12-s-10--14-12-10-10-10-10-| |
| |---------------------------------------------------------------------------------------------------------| |
| |---------------------------------------------------------------------------------------------------------| |
| |---------------------------------------------------------------------------------------------------------| |
| |---------------------------------------------------------------------------------------------------------| |

| |---------------------9-12-9------------------------------9--12-9------------| |
| |-----10-10-----10------------12--10------10-10-------10-------------12-10---| |
| |-11---------11----------------------11----------11--------------------------| |
| |----------------------------------------------------------------------------| |
| |----------------------------------------------------------------------------| |
| |----------------------------------------------------------------------------| |

Un saludo para el chivo de Martín, al chino reconch....(eres una cagada), al imbésil
de Alfonso (poooo....), al huevon de Daniel. Pa' mi pata Junior(no te digo no porque
despúes me sacas la mierda) y a Erick. Ah, me olvidaba de Erickson (pajeraso).

            
            
Suggest correction
Creating personal tab
Creating personal tab
You can edit any tab online and save it as your Personal.

You can edit, replace or remove any tab part or add personal notes – all changes will be seen only by you.

Personal tabs can be accessed anytime from any device, even offline.
Learn more »
Give kudos to tab author, rate the tab!
1 2 3 4 5
comments
print report bad tab
guest
Wanna post a correction for this tab? Suggest correction