Oops, an error
Loading. Please wait.

De Verdad Bass

11 views 1 this week
no commentswrite comment
1 2 3 4 5
3 more votes to show rating
add to favorites
×
Save as Personal and add changes to this tab that will be seen only by you. Learn more ›
×
You can save this tab as Personal to edit and correct it or add notes. All changes will be seen only by you. Learn more »
save as personal
new!
launch autoscroll
font size
0
reset
guitar tuner
Autoscroll
slow
fast
+/-
esc
set tempo
stop
I
| |--------------------------------------------| |
| |--------------------------------------------| |
| |-----------------555-5----------555-5-------| |
| |--------55-555--------55-555----------------| |

II
| |----------------------------------------------| |
| |----------------------------5---7-----5--7----| |
| |--------5--7-----5--7---5---------5-----------| |
| |----5---------5-------------------------------| |

III
| |-----------------------------------------------| |
| |-----------------------------------------------| |
| |-----8----8----7----7-----6---6----5----5------| |
| |--------8----8----7----7----6----6----5----5---| |

IV
| |-----------------------------------------------------------------------4---| |
| |-----------------4------------------------------------4------4---7---------| |
| |--------4----7--------5---4------------------4---7--------5----------------| |
| |-----5-------------------------7--5------5---------------------------------| |

| |----------------------------------| |
| |----------------------------------| |
| |----7------5-----4----------------| |
| |--------5-----5-----5---5--4--5---| |

V
| |----------------------------------------------------| |
| |----------------------------------------------------| |
| |--------------------55-555-4---------------55-555-4-| |
| |--------55-555-5-------------7-55-555-5-------------| |


INTRO: I 

II       
Piensa cuando dices que me vas a dejar 
II
que ya no me deseas libre quieres estar 
II
no encontraras a nadie con quien puedas hablar 
III
de verdad                      hablar de verdad
II
Si ya no estas conmigo no me voy a matar
II
no importa a donde mire amor no me va a faltar
II
no encontraras a nadie que te pueda besar 
III
de verdad                    besar de verdad

CORO
IV
Mira mis ojos cuando digas que te vas 

en serio crees que solo quiero jugar 
							       II	
estoy contigo porque sabes que te quiero que eres algo que no puedo dejar


II
Entiendo que mi vida no te llegue a gustar
II
tanto loca y atrevida pero buena en realidad
II
No encontraras a nadie con quien puedas gozar 
III
de verdad                              gozar de verdad

CORO

PUNTEO
SE TOCA II Y III


II       
Piensa cuando dices que me vas a dejar 
II
que ya no me deseas libre quieres estar 
II
No encontraras a nadie con quien puedas gozar 
III
de verdad                              gozar de verdad

CORO X2

V
Que no puedo dejar no no no puedo dejar no nos podemos dejar

PUNTEO
SE TOCA II
Suggest correction
Give kudos to tab author, rate the tab!
1 2 3 4 5
comments
print report bad tab
guest
Wanna post a correction for this tab? Suggest correction