Oops, an error
Loading. Please wait.

En Mi Cabeza Chords

21 views 1 this week
no commentswrite comment
1 2 3 4 5
3 more votes to show rating
add to favorites
launch autoscroll
font size
0
reset
transpose
0
reset
display chords
guitar tuner
Autoscroll
slow
fast
+/-
esc
set tempo
stop
Help us to improve Ultimate-Guitar.com Take our survey!
×
INTRO:
C, Am, G

| |--------------------------------------------------------------------------------| |
| |--------------------5-5--------------5------------------------------------------| |
| |----5---7--5--7--5-------7---5---7--------5-----5----------------4--7--4--------| |
| |---------------------------------------------7-----7---7s5--5-------------------| |
| |--------------------------------------------------------------------------------| |
| |--------------------------------------------------------------------------------| |

| |----------------------------------------------------------------3-3-3-3-3-3-3---| |
| |---------------------5-5--------------5-------------------------3-3-3-3-3-3-3---| |
| |----5---7--5--7--5-------7---5---7-------5-----5-----5s7------------------------| |
| |--------------------------------------------7-----7-----------------------------| |
| |--------------------------------------------------------------------------------| |
| |--------------------------------------------------------------------------------| |

No la buscaba y sin darme cuenta andaba      ( 1 )
C                                      Am        G
en la promesa de conquistar mejor           ( 2 )
C                                  Am        G

CORO:
Pero existió solo en mi cabeza 
        F                 G
y de repente me extraño al verla 
       F                     G
por que la vida no cumple siempre los sueños de amor
        F                     G

REP. INTRO

Yo dibujaba en mi pared su cara     ( 3 )
C                              Am        G
e imaginaba lo que me pudiera dar                    
C                               Am        G

REP. CORO

( 1 )
| |-------------------------------------------| |
| |-------------------------------------------| |
| |------5--7s9---9---7---5---7---5-----5-----| |
| |---7------------------------------7--------| |
| |-------------------------------------------| |
| |-------------------------------------------| |

( 2 )
| |--------------------------| |
| |--------------------------| |
| |---------------------5----| |
| |--7---5-----5---7---------| |
| |----------7---------------| |
| |--------------------------| |

( 3 )
| |-----5------5-------5-------5-----------------------| | 
| |-5-5----5-5----5-5-----5-5-----5--------------------| |
| |-----------------------------------7--5--7--5-------| |
| |------------------------------------------------7---| |
| |----------------------------------------------------| |
| |----------------------------------------------------| |


     C      Am     G
| |--3------5------3---| |
| |--5------5------3---| |
| |--5------5------4---| |
| |--5------7------5---| |
| |--3------7------5---| |
| |--3------5------3---| |
Suggest correction
Give kudos to tab author, rate the tab!
1 2 3 4 5
comments
print report bad tab
guest
You may want to rate the tab now too:
select rating
Wanna post a correction for this tab? Suggest correction