Oops, an error
Loading. Please wait.

Me Acuerdo Tab

26 views 1 this week
no commentswrite comment
1 2 3 4 5
3 more votes to show rating
add to favorites
launch autoscroll
font size
0
reset
how to read this tab
guitar tuner
×
Best way to learn
"Me Acuerdo"
Autoscroll
slow
fast
+/-
esc
set tempo
stop
Weno, para lo q me pidieron aquí les mando esta cnción de los
supersónicos q ta wenaza, está 100% completa y bien, el arpegio
y los solos correctos, de preferencia traten de tocar escuchando
la cncion x q les puse los tiempos y too, pa q sepan dnde entrar,
 cualquier cosa ya saben ahí ta mi msn!

TITULO        : ME ACUERDO
GRUPO         : SUPERSONICOS
TRANSCRITO POR: LUIS JOSÉ ALARCÓN CÀRDENAS
MSN           : luis6cuerdas@
FECHA         : Sábado, 23 de Junio del 2007


INTRO: El intro es con armónica, pero yo de armónica no se na, así q la
saque en guitarra, si tocas armónica ya te guías x las notas del pique ps,

e|7--7-8-7-8-7-8-7--7--7-8-7-8-7-8-7-8-10-7----10-1212--7--------|
B|8?-8-8-8-8-8-8-8--8--8-8-8-8-8-8-8-8--8-8-----8-1010--8--------|

Aquí están los acordes usados para el
arpegio(en el rasgueo sonlos normales)
   G              D             Em            C             C*
======/       ======/       ======/       ======/       ======/
OOOOOO VII    OOOOOO V      OOOOOO VII    OOOOOO VIII   OOOOOO VIII
||||O|        ||||||        ||||O|        |||O||        |||O||
||O|||        ||OOO|        ||OO||        |OO|||        |O||||
|O||||        ||||||        ||||||        ||||||        ||||||
||||||        ||||||        ||||||        ||||||        ||O|||
   Am               F
======/          ======/
OOOOOO V         OOOOOO V
||||||           ||||O|
|OO|||           ||O|||
||||||           |O||||
||||||           ||||||

VERSO:
  00:13                                     0:18
   G         D           Em       D          C               C*
e|-------------------------7-------------------------------------------|
B|-----8-------7-7h8h7----8-8-----7-7h8h7------------------------------|
G|---7---7----7----------9-------7--------------9-9h10h9---------9-----|
D|-9---------7----------9-------7-------------10--------10-----12-12---|
A|------------------------------------------10---------------10-----10-|
E|-----------------------------------------8----------------8----------|

   0:21             0:24
   D                G     D         Em      D         C
e|-------------------------------------7------------------------------|
B|---7-7h8-8h10-8-7---8-----7-7h8h7---8-8-----7-7h8h7-----------------|
G|--7-----9----------7-7---7---------9-------7-------------9-9h10h9---|
D|-7----------------9-----7---------9-------7------------10--------10-|
A|-----------------------------------------------------10-------------|
E|----------------------------------------------------8---------------|

  0:31        0:32          0:35                       0:37
   C*         D             C               C*         D
e|----------------------------------------------------------------------|
B|--------------7-8-10-8-7----------------------------------------------|
G|------9------7----------------9-9h10h9--------9--------7-7h8-8h10-8-7-|
D|----12-12---7---------------10--------10----12-12-----7-----9---------|
A|--10-----10----------------10--------------10-----10-7----------------|
E|-8------------------------8---------------8---------------------------|


  0:41                                    0:46
   G         D          Em      D          C                C*
e|-------------------------7-------------------------------------------|
B|-----8-------7-7h8h7----8-8-----7-7h8h7------------------------------|
G|---7---7----7----------9-------7--------------9-9h10h9---------9-----|
D|-9---------7----------9-------7-------------10--------10-----12-12---|
A|------------------------------------------10---------------10-----10-|
E|-----------------------------------------8----------------8----------|

  0:49           0:52                     0:55
   D             C              C*         D
e|-------------------------------------------------------|
B|---7-8-10-8-7------------------------------7-77--------|
G|--7----------------9h10h9---------9-------7-----5-7----|
D|-7---------------10------10-----12-12----7-------------|
A|---------------10-------------10-----10----------------|
E|--------------8--------------8-------------------------|


 0:57          1:00             1:03                  1:06           1:07
   Am            F               D                     G              Em*
     Pero aunq...  te quedaste...  ya no importan...me curaré en el baar
e|-5...----------5---------------5---------------------7--------------3-|
B|-5...----------6---------------7---------------------8--------------5-|
G|-5...----------5---------------7---------------------7--------------4-|
D|-7...----------7---------------7---------------------9--------------3-|
A|-7...----------8---------------5---------------------10-------------X-|
E|-5...----------5---------------5---------------------7--------------3-|

  1:09                1:11                1:14
   G         D           Em       D          C               C*
e|-------------------------7-------------------------------------------|
B|-----8-------7-7h8h7----8-8-----7-7h8h7------------------------------|
G|---7---7----7----------9-------7--------------9-9h10h9---------9-----|
D|-9---------7----------9-------7-------------10--------10-----12-12---|
A|------------------------------------------10---------------10-----10-|
E|-----------------------------------------8----------------8----------|

  1:17
   D
e|-------------------|
B|---7-7h8-8h10-8h7--|
G|--7-----9----------|
D|-7-----------------|
A|-------------------|
E|-------------------|

Aquí viene otra vez el intro con la armónica

INTRO: El intro es con armónica, pero yo de armónica no se na,así q la
saque en guitarra,si tocas armónica ya te guías x las notas del pique ps,

 1:20              1:23               1:25   1:27
e|7--7-8-7-8-7-8-7--7--7-8-7-8-7-8-7-8-10-7----10-1212--7--------|
B|8?-8-8-8-8-8-8-8--8--8-8-8-8-8-8-8-8--8-8-----8-1010--8--------|


Y luego el solo:
   1:30                 1:33          1:35
     G            D            Em      D
e|----------------8------------------/1010-7~--------|
B|-8h12-12-10h8-8-----(8)h10h8-88~10------------8~-----|
G|-------------------------------------------------|
D|-------------------------------------------------|
A|-------------------------------------------------|
E|-------------------------------------------------|

         1:38    1:39
  C       C*        D
e|-------------7----------------7~5~h3~h5~~----|
B|--------888h10-8------/55~-/88~--------------|
G|------------------/77~~----------------------|
D|---------------------------------------------|
A|---------------------------------------------|
E|---------------------------------------------|


  1:42
   Am            F               D                     G              Em*
     Pero aunq...  te quedaste...  ya no importan...me curaré en el baar
e|-5...----------5---------------5---------------------7--------------3-|
B|-5...----------6---------------7---------------------8--------------5-|
G|-5...----------5---------------7---------------------7--------------4-|
D|-7...----------7---------------7---------------------9--------------5-|
A|-7...----------8---------------5---------------------10-------------3-|
E|-5...----------5---------------5---------------------7--------------3-|

  1:54
Me acuerdo de ti eres difícil de olvidar
e|---------------------------------------------------|
B|---8~~~~~~~~~~------------------------------8~~~~~-|
G|---------------------------------------------------|
D|---------------------------------------------------|
A|---------------------------------------------------|
E|---------------------------------------------------|

                                                   2:02
                                                   DDD   h  G..
........si te saco de mi no tngo nada en que pensaar....Me acuerdo
e|-------------------------------------------------555---h--1010---|
B|------8~~~~~~~~-------------8~~~~~~--------------777---h--1212---|
G|-------------------------------------------------777---h--1212---|
D|-------------------------------------------------777---h--1212---|
A|-------------------------------------------------555---h--1010---|
E|-------------------------------------------------555---h--1010---|

   D          Em      D       C                 C*            D
  ...sooy  sinceroo, ...     eres lo unico en   que puedo pensaar
e|-55..-------77..----55..----88..---------------8------------55-----|
B|-77..-------88..----77..----88..---------------8------------77-----|
G|-77..-------99..----77..----99..---------------9------------77-----|
D|-77..------.99..----77..----1010..-------------10-----------77-----|
A|-55..-------77..----55..----1010..-------------10-----------55-----|
E|-55..-------77..----55..----88..---------------8------------55-----|


   2:16                          2:21                       2:24
      G
Me acueerdo   soooy siinceero     eres lounicoenquepueedoopeensaar
e|---10---10--10--------12-12-10|-7-8--7---------7h8h7h8---10h15-15h13-|
B|-12-12--12--12----------------|---------10-8.------------------------|
G|---------------------(12)-----|--------------------------------------|
D|---------------(12h14)--------|--------------------------------------|
A|------------------------------|--------------------------------------|
E|------------------------------|-------------------------------------|


  0:26                           0:28
     Naaraanaaraanaaraana           Naaraanaaraanaaraana
e|-15h17h15 17h15~h14h13-----------(15h17h15 17h15~h14h13)-|
B|---------------------------------------------------------|
G|---------------------------------------------------------|
D|---------------------------------------------------------|
A|---------------------------------------------------------|
E|---------------------------------------------------------|

 2:31                                                    2:37
   Naranaranarana    Naranaranaranaaa             Naranaranarana
e|-(15h17h15-17h15~h14h13)-------------------------------7h5~7h5~h4h3--|
B|----------------------------------------------------------------------|
G|----------------------------------------------------------------------|
D|----------------------------0:35-----------------------0:37----------|
A|--------------(BAJO-à>>>>----3h555h77h1010h1212h14h12-14h12-12h11h10-|
E|----------------------------------------------------------------------|

  2:40                2:42             2:45          2:47 2:48
    Naranaranarana      Naranaranarana    Naranaranarana    Naranaranarana
e|5h7h5~7h5~h4h3------5h7h5~7h5~h4h3---5h7h5~7h5~h4h3h5~~7~7h5~7h5~h4h3-|
B|----------------------------------------------------------------------|
G|-----------------(8)-----------------(8)---------------(8)------------|
D|----------------(7)-----------------(7)---------------(7)-------------|
A|---------------(9)-----------------(9)---------------(9)--------------|
E|----------------------------------------------------------------------|

   2:51                2:54           2:56            2:58 2:59
     Naranaranarana      Naranaranarana    Naranaranarana    Naranaranarana
e|-5h7h5~7h5~h4h3------5h7h5~7h5~h4h3---5h7h5~7h5~h4h3h5~~7~7h5~7h5~h4h3 -|
B|------------------(8)--------------(8)----------------(8)-------------|
G|-----------------(7)--------------(7)----------------(7)--------------|
D|----------------(9)--------------(9)----------------(9)---------------|
A|----------------------------------------------------------------------|
E|----------------------------------------------------------------------|

  3:02                3:05            3:08             3:09
     Naranaranarana      Naranaranarana   Naranaranarana
e|-5h7h5~7h5~h4h3------5h7h5~7h5~h4h3---5h7h5~7h5~h4h3h~5~---|
B|-----------------(8)----------------(8)--------------(8)---|
G|----------------(7)----------------(7)--------------(7)----|
D|---------------(9)----------------(9)--------------(9)-----|
A|-----------------------------------------------------------|
E|-----------------------------------------------------------|

   3:10
e|-~7~5-3-55~-----3----------|WENO ESO ES TOO X AHORA, CUALQUIER DUDA ME
B|---------------3----F------|MENSAJEAN A MI MSN O ME AGREGAN:
G|--------------4-------I----|luis6cuerdas@
D|-------------5----------N--|y que viva el Rock y en especial si es
A|------------5--------------|pErUaNo px!!!!
E|-----------3---------------|
Suggest correction
Give kudos to tab author, rate the tab!
1 2 3 4 5
comments
print report bad tab
guest
You may want to rate the tab now too:
select rating
Wanna post a correction for this tab? Suggest correction