Oops, an error
Loading. Please wait.

Para No Volar Chords

23 views 1 this week
no commentswrite comment
1 2 3 4 5
3 more votes to show rating
add to favorites
×
Save as Personal and add changes to this tab that will be seen only by you. Learn more ›
×
You can save this tab as Personal to edit and correct it or add notes. All changes will be seen only by you. Learn more »
save as personal
new!
launch autoscroll
font size
0
reset
transpose
0
reset
simplify chords
display chords
guitar tuner
Autoscroll
slow
fast
+/-
esc
set tempo
stop
Strumming
There is no strumming pattern for this song yet. and get +5 IQ
A                  C#m
Estoy sentado en un tranquilo lugar
A7                  D
los días pasan, no dejo de temblar
Dm                  A           E            D      A
mi corazón está a punto de estallar, el tiempo lo dirá.
A                  C#m
Hasta he llegado a perder la razón
A7                 D
en estas cosas uno pierde el control
Dm                    A            E      D      A - C#m - E
solo a tu lado encontré una dirección, el tiempo lo dirá.


*CORO*
F#m            E             D      [A - E]
Y aunque te diga que no voy a llorar
F#m         E            D      [A - E]
nunca podría quitarte la libertad
F#m         E            D      [A - E]
te juro que no te voy a olvidar
D                 Bm          A       E
me arrancaré las alas para no volar.


A                  C#m
Fue tan difícil llegarnos a encontrar
A7            D
¿?¿? la hora que te vas
Dm                  A                E           D            A - C#m - E
aún no es tarde para volver a atrás, el tiempo lo dirá.


*CORO*


Solo: A - C#m - A7 - D - Dm - A - E - D - A
e|-------------12------------------12------------------12/14..--
B|-12/14-12------------12/14-12------------12/14-12-------------
G|----------14----14.-----------14----13.-----------14----------
D|--------------------------------------------------------------
A|--------------------------------------------------------------
E|--------------------------------------------------------------

e|-12-14-12------------------------12-10-9-10-9----------------------
B|----------14--10/12/10--10----10--------------12-10---10.--
G|----------------------11---11--------------------------------------
D|-------------------------------------------------------------------
A|-------------------------------------------------------------------
E|-------------------------------------------------------------------

e|---------10-12/13-12-10------------9/10-9.--------12--12--17/19.--
B|------10----------------10------10----------12/14---14------------
G|-8/10----------------------10-9-----------------------------------
D|------------------------------------------------------------------
A|------------------------------------------------------------------
E|------------------------------------------------------------------

e|-19/17----17---19/20.-19-17-19-17-17----17-19/20-20--20-19-17-19-17..-|
B|-------19----------------------------19-------------------------------|
G|----------------------------------------------------------------------|
D|----------------------------------------------------------------------|
A|----------------------------------------------------------------------|
E|----------------------------------------------------------------------|


A                  C#m
Sigo sentado en un tranquilo lugar
A7                  D
los días pasan, no dejo de temblar
Dm                  A                E           D            A - C#m - E
aún no es tarde para volver a atrás, el tiempo lo dirá.


*CORO*


F#m - E - D - [A - E] (x4)


F#m            E             D      [A - E]
Y aunque te diga que no voy a llorar
F#m         E            D      [A - E]
nunca podría quitarte la libertad
F#m         E            D      [A - E]
te juro que no te voy a olvidar
F#m         E            D      [A - E]
aún no es tarde para volver a atrás.


F#m - E - D - [A - E] --> Hasta que termina.


                 --------
              º-| ¤    ¤ |-º
              º-|  LuïS  |-º
              º-| ¤    ¤ |-º
                 \      /
                |    |
      ·===========================·
      | luis_6cuerdas@ |
      ·===========================·

*Si hubiese algún error o alguna duda, escribe al mail o avisa por MSN*
Suggest correction
Give kudos to tab author, rate the tab!
1 2 3 4 5
comments
print report bad tab
guest
Wanna post a correction for this tab? Suggest correction