Oops, an error
Loading. Please wait.

Reza Un Poco Por Mí Chords

14 views 1 this week
no commentswrite comment
1 2 3 4 5
3 more votes to show rating
add to favorites
launch autoscroll
font size
0
reset
transpose
0
reset
display chords
guitar tuner
Autoscroll
slow
fast
+/-
esc
set tempo
stop
Help us to improve Ultimate-Guitar.com Take our survey!
×
INTRO:
C, Bb, Am, Gm x2

Sobre mi besa hoy lo que no hice por ti
             F             D              Gm          C
donde estés por favor reza un poco por mí
             F             D            Gm          C
que si siento temor es por ser como soy 
             F              D            Gm          C
inconsciente al dolor inconstante a tu amor
              F           D        Gm          C
yo fingi la razón simplemente soy así 
        F             D            Gm          C
y la canción que escribí es verdad que era por ti
             F                     D         Gm          C
pero me siento mal de ser como yo soy
          F            D            Gm          C
tal vez la soledad sea mucho mejor
           F            D            Gm          C

REP. INTRO

CORO:
     Si pudiera volar al tiempo donde todo empezó
G#              D#          Bb                            F
ya no tendría que buscar salir a esta prisión
G#                       D#          Bb            F

REP. INTRO

Sobre mi besa hoy lo que no hice por ti
             F             D              Gm          C
donde estés por favor reza un poco por mí
             F             D            Gm          C


| |------------------------------------------------------------------------------| |
| |------------------------------------------------------------------------------| |
| |---10s12---14---14--14--12--11---12---14--14-15-14-15-14-15-14-15-----17------| |
| |------------------------------------------------------------------------------| |
| |------------------------------------------------------------------------------| |
| |------------------------------------------------------------------------------| |


| |-----------------------------------------------------------------------13-12-----------------------| |
| |-----------------------------------------------------------------------------14b15---13---14s15-13-| |
| |--17---12---10--12---14--14--12---11--12---14---14--15--14--15--14---------------------------------| |
| |---------------------------------------------------------------------------------------------------| |
| |---------------------------------------------------------------------------------------------------| |
| |---------------------------------------------------------------------------------------------------| |

 Y si siento temor es por ser como soy 
             F              D            Gm          C
inconsciente al dolor inconstante a tu amor
              F           D        Gm          C

REP. CORO
REP. INTRO

     C      Bb     Am    Gm      F      D      G#     D#
| |--3------1------5------3------1------5------4------6----| |
| |--5------3------5------3------1------7------4------8----| |
| |--5------3------5------3------2------7------5------8----| |
| |--5------3------7------5------3------7------6------8----| |
| |--3------1------7------5------3------5------6------6----| |
| |--3------1------5------3------1------5------4------6----| |
Suggest correction
Give kudos to tab author, rate the tab!
1 2 3 4 5
comments
print report bad tab
guest
You may want to rate the tab now too:
select rating
Wanna post a correction for this tab? Suggest correction