Oops, an error
Loading. Please wait.

Elástica Galáctica Tab

145 views 1 this week
no commentswrite comment
1 2 3 4 5
3 more votes to show rating
add to favorites
launch autoscroll
font size
0
reset
how to read this tab
guitar tuner
×
Best way to learn
"Elástica Galáctica"
Autoscroll
slow
fast
+/-
esc
set tempo
stop
INTRO:
  FA                DO              FA                  DO
e----------------------------------------------------------------
B----------------------------------------------------------------
G----------------------------------------------------------------
D-------------------7-7--7--------------------------8-8--8-7-7--- x2
A--8-8---8-10-10--10------10-10--10-8-8--8-10-10--10-------------
E----------------------------------------------------------------


FA         DO
 Se lo que brota pero se raíz
FA       DO                   FA
 Se la tirita se la cicatriz
FA        DO
 Se la mentira que se sinceró
FA        DO                   FA
 Se la cordura que se desatò
FA         DO
 Se cuanto te gusta a ti ser así
FA        DO                            FA
 Se tan distinta a lo que hay por aquí
FA         DO
 Y si no sabes lo que quieres ser
FA         DO
 yo te lo digo se mi no se qué

-------------------
-------------------
-------------------
--------------5-7--
--------5-7-8------  x3 (La primera lenta, y las otras dos rápido)
--5-6-8------------


FA DO     FA
Se tu por mí
        DO
Se imprecisa
       REm
Se sin fin
      DO           SIb
Se la parte que perdí
           DO                                  FA
que no me duela la cabeza si te encuentro por aquí
        DO           REm
Se el imperio en mi país
        DO           SIb
Se la fuerza junto a mí
         DO                                      FA
Se la galaxia que nos queda juntos hoy por descubrir

   FA            DO                 REm           DO
D---------------------------------------------------------------
A----------------7(x4)---------------------------8(x4)--7(x4)---
E--8(x4)--10(x4)-------10(x4)------8(x4)--10(x4)----------------

   SIb                          DO
D---------------------------------------------------
A-----------------7(x4)--8(x4)--10(x9)--------------
E--8(x4)--10(x4)------------------------------------


  FA                DO              FA                  DO
e------------------------------------------------------------------
B------------------------------------------------------------------
G------------------------------------------------------------------
D-------------------7-7--7--------------------------8-8--8-7-7-7---
A--8-8---8-10-10--10------10-10--10-8-8--8-10-10--10-------------8-
E------------------------------------------------------------------

FA       DO
 Se la victoria que me derrotó
FA        DO                   FA
 Se la venganza que me calentó
FA       DO
 Se la distancia que nos separó
FA     DO                   FA
 Filosofia del que no pensó


-------------------
-------------------
-------------------
--------------5-7--
--------5-7-8------  x3 (La primera lenta, y las otras dos rápido)
--5-6-8------------


FA DO     FA
Se tu por mí
        DO
Se imprecisa
       REm
Se sin fin
      DO           SIb
Se la parte que perdí
           DO                                  FA
que no me duela la cabeza si te encuentro por aquí
        DO           REm
Se el imperio en mi país
        DO           SIb
Se la fuerza junto a mí
         DO                                      FA
Se la galaxia que nos queda juntos hoy por descubrir

        DO
Se imprecisa
       REm
Se sin fin
      DO           SIb
Se la parte que perdí
           DO                                  FA
que no me duela la cabeza si te encuentro por aquí
        DO           REm
Se el imperio en mi país
        DO           SIb
Se la fuerza junto a mí
         DO                                      FA FA FA FA...
Se la galaxia que nos queda juntos hoy por descubrir


Espero que os suene bien!
Suggest correction
Give kudos to tab author, rate the tab!
1 2 3 4 5
comments
print report bad tab
guest
You may want to rate the tab now too:
select rating
Wanna post a correction for this tab? Suggest correction