Oops, an error
Loading. Please wait.

Otra Vez Por Tí Estoy Llorando Tab

by Sur 16
50 views 1 this week
no commentswrite comment
1 2 3 4 5
3 more votes to show rating
add to favorites
×
Save as Personal and add changes to this tab that will be seen only by you. Learn more ›
×
You can save this tab as Personal to edit and correct it or add notes. All changes will be seen only by you. Learn more »
save as personal
new!
launch autoscroll
font size
0
reset
how to read this tab
guitar tuner
Autoscroll
slow
fast
+/-
esc
set tempo
stop
Intro:

Em-Am-G-F#m-Em-Am-G-B7-Em...
E-----------------------------------------------------------
A-----------------------------------------------------------
D-----------------------------------------------------------
G-----------------------------------------------------------
B-----------------------12-15-17--13--12-13-15--13-12-------
e--19--20--19-17-19--15------------------------------10-12--

Em           Am           G-F#m-Em
Otra vez por ti estoy llorando
        Am                   G
Ahogado en el vació de un cuarto
       B7 (pausa)...Riff 1
En el vacio...
        Em
De mi vida

Em              Am
Vuelve el pensamiento
       G-F#m-Em
Hacia ti
               Am
Hacia un cielo viejo
            G
Lleno de estrellas
          B7 (pausa) Riff 2
Con el retrato...
                   Em
De tu rostro en mi pecho

C                G
Hoy suena en la radio
                   D
Aquella triste cancion
C           G
La que por ti
              D
No podre olvidar no!!!
            B7 (pausa)
La que muy juntos...
               Em
Nos hiciera llorar

C             G
Otra vez por ti
             Em
Yo estoy llorando
C               G
Por lo que el destino
            Em
Nunca dejo ser no!!!
         B7 (pausa)
Por lo triste amor...
                   Em
Que fue dejarte de ver


Solo: nadamas lleva estos 3 acordes...C-D-Em


E-----------I-----------------------------
A-----------I-----------------------------
D-----------I-----------------------------
G--11-12-9--I--11-12--12------------12-9^--
B-----------I-------10--10-12--------------
e-----------I------------------15-12-------

E-----------I---------------
A-----------I---------------
D-----------I---------------
G--11-12-9--I--11-12--12----
B-----------I-------10--10--
e-----------I---------------


E------------------------------------------
A------------------------------------------
D------------------------------------------
G--9-11-12-11-12--12-----------------------
B---------------10--10-12-10-12--12--------
e------------------------------10--10-12^--


E--------------------------------------------
A--------------------------------------------
D--------------------------------------------
G-------------------------------------16^12--
B--12---------12------12-------17-17~--------
e----10-12^-10--12^-10----17-15--------------

E---------------------------------
A---------------------------------
D---------------------------------
G---------------------------------
B---------------------------------
E--12-14-15-14-12-15-14-10-12^12--

E--------------I----------------------
A--------------I----------------------
D--------------I----------------------
G--------------I----------------------
B--------------I----------------------
e--10-8-10/12--I--12-14/15-15/17--19--

Em              Am
Vuelve el pensamiento
       G-F#m-Em
Hacia ti
                Am
Hacia un cielo viejo
            G
Lleno de estrellas
          B7
Con el retrato...
                   Em
De tu rostro en mi pecho

Em                      Am
Ahora se le que eh perdido(recuerdame tambien)
Em               Am
Por que vale la pena
                G
Llorar por un amor
           B7
Que algun dia...
                        Em
Que algun dia fue muy feliz

C                G
Hoy suena en la radio
                   D
Aquella triste cancion
C           G
La que por ti
              D
No podre olvidar no!!!
             B7
La que muy juntos...
                Em
Nos hiciera llorar

C             G
Otra vez por ti
           Em
Yo estoy llorando
C                 G
Por lo que el destino
            Em
Nunca dejo ser no!!!
         B7
Por lo triste amor...
                    Em
Que fue dejarte de ver

C             G
Otra vez por ti
               Em
Yo estoy llorando
C                  G
Por lo que el destino
           Em
Nunca dejo ser no!!!
         B7
Por lo triste amor...
                    Em Riff 3
Que fue dejarte de ver

        B7
Por lo triste amor...
                    Em Riff 4
Que fue dejarte de ver

          B7
Pero mas triste aun...
                 Em
Es mi vida sin ti

                  (Agosto 20 de 1990 te extraño)
E-----------------------------------------
A-----------------------------------------
D-----------------------------------------
G-----------------------------------------
B----------------------------7h8-7-5-4-5--
e--18-19--14-15--11h12-11-7---------------

Riff 1
E----------------------
A----------------------
D--9h12----------------
G------11h12-----------
B-----------10h12-12---
e----------------------

Riff 2
E-------------------------
A-------------------------
D-------------------------
G---------------------16--
B-------20-19-20-19-17----
e--19-17------------------

Riff 3
E-----------------
A--7--------------
D---5-7-5-7--9^9--
G-----------------
B-----------------
e-----------------

Riff 4
E--------------------------
A--------------------------
D--------------------------
G----------12-11-11h12--9--
B--13-12-10----------------
e--------------------------

Esa es toda la rola
cualquier duda o comentario
Al correo...
sale banda nz vemos la proxima!!!!!!!
Suggest correction
Give kudos to tab author, rate the tab!
1 2 3 4 5
comments
print report bad tab
guest
Wanna post a correction for this tab? Suggest correction