Oops, an error
Loading. Please wait.

Policía Chacal Tab

24 views 3 this week
no commentswrite comment
1 2 3 4 5
3 more votes to show rating
add to favorites
launch autoscroll
font size
0
reset
how to read this tab
guitar tuner
Autoscroll
slow
fast
+/-
esc
set tempo
stop
Help us to improve Ultimate-Guitar.com Take our survey!
×
SOLO DE GUITARRA ELECTRIKA

E--7--7-7-7-------------------7--7-7-7---------------
B--8--8-8-8--10--88-7---------8--8-8-8--10--88-7-----
G---------------------9--------------------------9-7-
D-----------------------9----------------------------
A----------------------------------------------------
E----------------------------------------------------

E-------------------------------------------------7----
B----88----8-----8----8--10b-10-8b-8-8b--7-8-9-10---8--
G-99----89----89---89----------------------------------
D-----------------------------------------------------9
A------------------------------------------------------
E------------------------------------------------------

E--7--7-7-7-----------------7--7-7-7----------------
B--8--8-8-8--10--88-7-------8--8-8-8--10-8-7--------
G---------------------9----------------------9-7----
D-----------------------9---------------------------
A---------------------------------------------------
E---------------------------------------------------

E------------------------------------------------------
B-----8-----8----8----8--10b-10-8b-8b-8b-8b-7----------
G--89----89---89---89-------------------------7--------
D----------------------------------------------9-7-----
A--------------------------------------------------9-7-
E------------------------------------------------------
Suggest correction
Give kudos to tab author, rate the tab!
1 2 3 4 5
comments
print report bad tab
guest
You may want to rate the tab now too:
select rating
Wanna post a correction for this tab? Suggest correction