Oops, an error
Loading. Please wait.

Siénteme Chords

version 1
version 1

Whole song

by Sur 16
22 views 3 this week
no commentswrite comment
1 2 3 4 5
3 more votes to show rating
add to favorites
×
Save as Personal and add changes to this tab that will be seen only by you. Learn more ›
×
You can save this tab as Personal to edit and correct it or add notes. All changes will be seen only by you. Learn more »
save as personal
new!
launch autoscroll
font size
0
reset
transpose
0
reset
simplify chords
display chords
guitar tuner
Autoscroll
slow
fast
+/-
esc
set tempo
stop
Strumming
There is no strumming pattern for this song yet. and get +5 IQ
 
  ***** bajo y guitarra***


Dm+                      ++(guitar)

Bajo
G --------------
D --------------
A -5---5-7---5--
E --------------

C+ 
G ---------------
D ---------------
A -3---3-5---3---
E ---------------

Bb+ 
G ---------------
D ---------------
A -1---1-3---1---
E ---------------

F+ 
G ---------------
D ---------------
A ---------------
E -1---1-3----1--


 Más abajo están otras trancripciones de bajo  


Lo de guitarra puedes ir punteando


Dm                            C
 Siénteme, cuando vuelva la lluvia
                    Bb
 deja por tu pensamiento
                            F
 que se habracen nuestros cuerpos
                 C
 como en otros tiempos
                      Dm
 como en los viejos tiempos

Dm                          C  
 Tócame, mira mi rostro en el agua
                          Bb
 siente mis manos en el viento
                       F
 sabrás que te he hido amando
             C                     Dm 
 todo este tiempo y hasta la eternidad


BAJEO AL MISMO TIEMPO QUE LA VOZ

CORO:

   U-U-U-U-U-U-U-U-U
G ---------------------------
D ---------------------------
A -5-5-7---7-8-3---5--------
E --6----8-------5----------

        F        C 
 Siénteme como ayer
          Bb        F
 cuando vuelva la lluvia
        Bb       C
 siénteme como ayer
          Bb        F   
 cuando vuelva la lluvia
          Bb        F
 cuando vuelva la lluvia


 ESTE BAJEO LO HACES AL MISMO TIEMPO QUE LA VOZ

CORO:

   U-U-U-U-U-U-U-U-U-U-
G -----------------------
D -----------------------
A -5---5-7---7-8-3---5---
E ---6-----8-------5-----


Dm                                  C
 Recuérdame en lo más tierno del pasado
                             Bb
 cuando brillara nuestra historia
                                F
 antes de caer los dos en el error
          C
 de un adios

 
 Siénteme........


 y terminas con bajo punteando  así.

G --------------------------------------
D --------------------------------------
A --------------------------------------
E -1-1-1-1-1-1---1-1-1-1-1---1-1-1-1-1-1

 ESPERO QUE ESTÉ MÁS O MENOS BIEN SI NO RECRIMINA EN EL MAIL.
Suggest correction
Give kudos to tab author, rate the tab!
1 2 3 4 5
comments
print report bad tab
guest
Wanna post a correction for this tab? Suggest correction