Oops, an error
Loading. Please wait.

Siénteme Tab

by Sur 16
17 views 1 this week
no commentswrite comment
1 2 3 4 5
3 more votes to show rating
add to favorites
×
Save as Personal and add changes to this tab that will be seen only by you. Learn more ›
×
You can save this tab as Personal to edit and correct it or add notes. All changes will be seen only by you. Learn more »
save as personal
new!
launch autoscroll
font size
0
reset
how to read this tab
guitar tuner
Autoscroll
slow
fast
+/-
esc
set tempo
stop
Intro:

  Dm               C                     Bb
E-----------------------------------------------------------
A--5-------5-------10---------10---------8-------8----------
D---7-----7-7-----7--10-----10--10-----10-8-----8-8---------
G----7---7---7---7-----9---9------9---9----7---7---7-----7--
B-----6-6-----6-6-------8-8--------8-8------6-6-----6-6-6---
e------5-------5---------8----------8--------6-------6-6----

   F             C
E--0--I-------I--8----
A--0--I-------I--10---
D--0--I-------I--10---
G--5--I---9---I--9----
B--6--I-----8-I--8----
e--5--I--8----I--8----

Dm                         C
Sienteme, cuando vuelva la lluvia
                 Bb
Deja por tu pensamiento
                       F
Y se abrasen nuestros cuerpos
               C
Como en otros tiempos...
                   Dm
Como en los viejos tiempos

Dm                            C
Tocame, mira mi rostro en el agua
                    Bb
Siente mis manos en el viento
                      F
Sabras que te eh ido amando
          C                  Dm
Todo este tiempo...hasta la eternidad

Dm         C            F        Bb
Uh, uh uh uh, uh uh uh, uh uh uh
      F          C
Sienteme...como ayer
         Bb        F
Cuando vuelva la lluvia
      Bb         C
Sienteme...como ayer
        Bb        F
Cuando vuelva la lluvia
        Bb          F
Cuando vuelva...la lluvia


Solo: Dm-C-Bb-F-C...X2

E-----------------------------------------------------------
A--7-5~~~---------------------------------------------------
D-----------------------------------------------------------
G-----------------------------------------------------------
B----------10-13--------------------------------------------
e---------------10-12h13-12-10/12-8--8--8-10-10/12-10--8-8--

E---------------------------I----------------------------------
A---------------------------I----------------------------------
D---------------------------I----------------------------------
G-----------------------12--I------------10-10-----------------
B--11--11-13-13-11-10h11----I--11-11-10-8--8--8/10-10-10-8-10--
e---------------------------I----------------------------------

E-----------------------------------------------------------------
A-----------------------------------------------------------------
D-----------------------------------------------------------------
G------------------------------------------------------------10---
B--10/11-10-11-13--------------------------10-10--10~~10-10-8--8--
e----------------10-12-13-12-10--12^-10--10-----------------------

E--------------I------------------------------------------------
A--------------I------------------------------------------------
D--------------I------------------------------------------------
G--------------I------------------------------------------------
B--10-11-8-10--I--8--10-11--10-11-10-11-13/15-------------------
e--------------I-----------------------------13-10~~~~13-10^-8--

E------------------------------------------------------
A------------------------------------------------------
D------------------------------------------------------
G---------------------------------------------10/9/10--
B--11--8-10-8-10-8-11---------10-10--10^--7-8----------
e--------------------8--10^--8-------------------------

E-----------------------
A-----------------------
D-----------------------
G--7/8--8/7~~~~~~~~~----
B-----------------------
e-----------------------

Dm                                C
Recuerdame, en lo mas tierno del pasado
                    Bb
Cuando brillaba nuestra historia
               F               C
Antes de caer los dos...en el error
        Dm
De un adios

Dm         C         F        Bb
Uh, uh uh uh, uh uh uh, uh uh uh
       F         C
Sienteme...como ayer
         Bb       F
Cuando vuelva la lluvia
     Bb          C
Sienteme...como ayer
        Bb        F
Cuando vuelva la lluvia
        Bb          F
Cuando vuelva...la lluvia
        Bb          F
Cuando vuelva...la lluvia


Sale banda
k dios bendiga a la familia del vampiro
y en donde kiera k este
ojala y se encuentre de lo mejor
cantando desde alla arriba!!!!!!!1
Suggest correction
Give kudos to tab author, rate the tab!
1 2 3 4 5
comments
print report bad tab
guest
Wanna post a correction for this tab? Suggest correction