Oops, an error
Loading. Please wait.

Tomando Café Tab

17 views 1 this week
no commentswrite comment
1 2 3 4 5
3 more votes to show rating
add to favorites
launch autoscroll
font size
0
reset
how to read this tab
guitar tuner
Autoscroll
slow
fast
+/-
esc
set tempo
stop
Help us to improve Ultimate-Guitar.com Take our survey!
×
Esta es el acompañamiento de casi toda la canción:
(Yo la toco así)


E----------------------------------------
B---- -----------------------------------
G-------------4--------4------3-3-3--2-2-2
D----------5--------5---------5-5-5--4-4-4  
A---5-6-7-------7-5--------5--3-3-3--2-2-2 
E7---------------------------------------


O si no te gusta  puede ser así:
                           C7      B7
E--------------------------3-3-3---2--
B------------0----------0--0-0-0---0--
G----------0----------0----3-3-3---2--
D----0-1-2-------2--0------2-2-2---1--
A--2-----------------------3-3-3---2--
E--------------------------0-0-0---0--

Y este va con guitarra eléctrica, es como acompañamiento:


   Em     G  G7B7
E--7-7-7--7--8-7--
B--8-8-8--8--8-7--
G--9-9-9--7--9-8--
D-----------------
A-----------------
E-----------------

Necesitas escuchar la rola.

Y esta es la letra:

La vida pasa en un vuelo de pájaros
y yo me pregunto porqué
si el mundo se está acabando
y yo estoy aqui tomando café.

La gente viene cuenta sus problemas
que crecen cada vez
ellos me dicen ya no leas poemas
deja de pensar y todo está bien

Tomando, tomando y fumando café
tomando, tomando y fumando café

Mi madre dice nada te interesa
mi padre opina lo mismo también
y de lo único que tengo certeza
es que sigo aquí tomando café.

Yo me pongo a leer las noticias
que no me sientan muy bien
si hay niños buscando caricias
y yo sigo aquí quemando café.

*****Buenos Blues banda******
Suggest correction
Give kudos to tab author, rate the tab!
1 2 3 4 5
comments
print report bad tab
guest
You may want to rate the tab now too:
select rating
Wanna post a correction for this tab? Suggest correction