Oops, an error
Loading. Please wait.

La Perfección Tab

172 views 6 this week
no commentswrite comment
1 2 3 4 5
3 more votes to show rating
add to favorites
launch autoscroll
font size
0
reset
how to read this tab
guitar tuner
×
Best way to learn
"La Perfección"
Autoscroll
slow
fast
+/-
esc
set tempo
stop
La perfeccion    esta completa tiene el solo bueno.
Intro:

E--------------------------------------------------
B--------------------------------------------------
G--------------------------------------------------
D------------6-6-6-5-6-5-3-3-3-3-5-5-3s1-----------
A--3-3-3-3-3---------------------------------------
E--------------------------------------------------(2 veces)

LENTO
E-----------------------------------------------------
B-----------------------------------------------------
G--5555-------8---------------------------------------
D--5555--6----8--8888---10-6--------------------------
A--3333--6----6--8888---10-8--------------------------
E--------4-------6666---8--6--------------------------
E-----------------------------------------------------
B-----------------------------------------------------
G--5555-------8---------------------------------------
D--5555--6----8--8888---10-6---10----------------------
A--3333--6----6--8888---10-8---10----------------------
E--------4-------6666---8--6---8-----------------------
RAPIDO
E-----------------------------------------------------
B-----------------------------------------------------
G--5555-------8---------------------------------------
D--5555--6----8--8888---10-6--------------------------
A--3333--6----6--8888---10-8--------------------------
E--------4-------6666---8--6--------------------------
2 VECES
ANTES DEL VERSO
E--------------------------------------------
B--------------------------------------------
G--------------------------------------------
D--------------------------------------------
A--33333333-1-----3333333331-----------------
E--------------------------------------------
VERSO:
El mundo moderno y su perfección
Perfecta maquina de destrucción
Cañones que apuntan a todo lugar
Siempre hay una bomba a punto de explotar

E-----------------------------------------
B-----------------------------------------
G--5-------8------------------------------
D--5---6---8---8--------------------------
A--3---6---6---8--------------------------
E------4-------6-------------------------- (4 VECES)
Quédate en casa y sella las ventanas
Porque hay un gas que te apesta
Prende la tele y mira que bue
Rating tiene esta nueva comedia

E-----------------------------------------------------------------
B-----------------------------------------------------------------
G--5555------------------------------------------------------------
D--5555-6666---8888--10101010--------------------------------------
A--3333-6666---8888--10101010--33333-6-4-3-------6-4-3--------8-6-5-
E-------4444---6666?-8-8-8-8----------------44444-------66666-------

E--------------------------------------------------------
B--------------------------------------------------------
G--------------------------------------------------------
D--------------------------------------------------------
A----101010101010101010----------------------------------
E----8-8-8-8-8-8-8-8-8-----------------------------------


VERSO:
Terror en las calles de babilón
Ganado asustado menos producción
Pero bombardeando con publicidad
Se convierte el problema en oportunidad


E-----------------------------------------
B-----------------------------------------
G--5-------8------------------------------
D--5---6---8---8--------------------------
A--3---6---6---8--------------------------
E------4-------6-------------------------- (4 VECES)

Mentira en los medios es tuya
La radio la televisión y la prensa
Manipulando creando ilusiones
y borrando conciencias


E-----------------------------------------------------------------
B-----------------------------------------------------------------
G--5555------------------------------------------------------------
D--5555-6666---8888--10101010--------------------------------------
A--3333-6666---8888--10101010--33333-6-4-3-------6-4-3--------8-6-5-
E-------4444---6666?-8-8-8-8----------------44444-------66666-------

E--------------------------------------------------------
B--------------------------------------------------------
G--------------------------------------------------------
D--------------------------------------------------------
A----101010101010101010----------------------------------
E----8-8-8-8-8-8-8-8-8-----------------------------------


CORO:

Todo esta tan bien controlado
Todo esta tan bien legislado
Todo esta tan bien etiquetado

E-------------------------------------------
B-------------------------------------------
G-------------------------------------------
D----------------55555----------------------
A----------------55555----------------------
E----4-6-4-6-4-6-33333----------------------- (3 VECES)

Qué buena función: montaste cabrón


E-------------------------------------------
B-------------------------------------------
G-------------------------------------------
D---666666666---8888888888-------------------
A---666666666---8888888888-------------------
E---444444444---6666666666--------------------


RAPIDO
E-----------------------------------------------------
B-----------------------------------------------------
G--5555-------8---------------------------------------
D--5555--6----8--8888---10-6--------------------------
A--3333--6----6--8888---10-8--------------------------
E--------4-------6666---8--6--------------------------
2 VECES   LA PERFECIOOOOOON


VERSO:
Moviendo las fichas y el arsenal
En defensa siempre de tu capital
Según la ventaja invadir o expulsar
Eres tu quien controla el orden mundial

E-----------------------------------------
B-----------------------------------------
G--5-------8------------------------------
D--5---6---8---8--------------------------
A--3---6---6---8--------------------------
E------4-------6-------------------------- (4 VECES)

Y así se mueve la bolsa y la banca
Y el precio por acción aumenta
La democracia de un pueblo se mide
Según el nivel de sus ventas

E-----------------------------------------------------------------
B-----------------------------------------------------------------
G--5555------------------------------------------------------------
D--5555-6666---8888--10101010--------------------------------------
A--3333-6666---8888--10101010--33333-6-4-3-------6-4-3--------8-6-5-
E-------4444---6666?-8-8-8-8----------------44444-------66666-------


CORO:

Todo esta tan bien controlado
Todo esta tan bien legislado
Todo esta tan bien etiquetado

E-------------------------------------------
B-------------------------------------------
G-------------------------------------------
D----------------55555----------------------
A----------------55555----------------------
E----4-6-4-6-4-6-33333----------------------- (3 VECES)

Qué buena función: montaste cabrón


E-------------------------------------------
B-------------------------------------------
G-------------------------------------------
D---666666666---8888888888-------------------
A---666666666---8888888888-------------------
E---444444444---6666666666--------------------


RAPIDO
E-----------------------------------------------------
B-----------------------------------------------------
G--5555-------8---------------------------------------
D--5555--6----8--8888---10-6--------------------------
A--3333--6----6--8888---10-8--------------------------
E--------4-------6666---8--6--------------------------
2 VECES   LA PERFECIOOOOOON

E-------------------------------------------
B-------------------------------------------
G-------------------------------------------
D---666666666---8888888888-------------------
A---666666666---8888888888-------------------
E---444444444---6666666666--------------------
 SOLO:

E------------------------------------------------------------------
B------------------------------------------------------------------
G--5-7-8-7-10-8787-5--5-3-------------------0-5-3-0-5-3-0-5-3-----
D-------------------------6-5-3------------------------------------
A-------------------------------6-5-6?3)))------------------------
E------------------------------------------------------------------

E---------------------------------------------------
B----------------------------------------------------
G----5-3-5-3-5-3-5-3-53535353535---------------------
D----------------------------------------------------
A----------------------------------------------------
E----------------------------------------------------


CORO:

Todo esta tan bien controlado
Todo esta tan bien legislado
Todo esta tan bien etiquetado

E-------------------------------------------
B-------------------------------------------
G-------------------------------------------
D----------------55555----------------------
A----------------55555----------------------
E----4-6-4-6-4-6-33333----------------------- (3 VECES)

Qué buena función: montaste cabrón


E-------------------------------------------
B-------------------------------------------
G-------------------------------------------
D---666666666---8888888888-------------------
A---666666666---8888888888-------------------
E---444444444---6666666666--------------------


RAPIDO
E-----------------------------------------------------
B-----------------------------------------------------
G--5555-------8---------------------------------------
D--5555--6----8--8888---10-6--------------------------
A--3333--6----6--8888---10-8--------------------------
E--------4-------6666---8--6--------------------------
2 VECES   (LA PERFECIOOOOOON)
RAPIDO
E-----------------------------------------------------
B-----------------------------------------------------
G--5555-------8---------------------------------------
D--5555--6----8--8888---10-6--------------------------
A--3333--6----6--8888---10-8--------------------------
E--------4-------6666---8--6--------------------------
3 VECES (LA PERFECIOOOON)
E-----------------------------------------------------
B-----------------------------------------------------
G--5555-------8---------------------------------------
D--5555--6----8--8888---10-6-10------------------------
A--3333--6----6--8888---10-8-10------------------------
E--------4-------6666---8--6-8-------------------------
Suggest correction
Give kudos to tab author, rate the tab!
1 2 3 4 5
comments
print report bad tab
guest
You may want to rate the tab now too:
select rating
Wanna post a correction for this tab? Suggest correction