Oops, an error
Loading. Please wait.

Corazón Contento Tab

153 views 1 this week
no commentswrite comment
1 2 3 4 5
3 more votes to show rating
add to favorites
launch autoscroll
font size
0
reset
how to read this tab
guitar tuner
Autoscroll
slow
fast
+/-
esc
set tempo
stop
Help us to improve Ultimate-Guitar.com Take our survey!
×
un aporte de   UTUS
del grupo VARDOS
 ayacucho KNT_TAZ_4@HOTMA


Guitar I
               E   E E S  S  E S    E E E PM-----------
e-|----------------------------------------------------|---||
B-|-------------------3--------------------------------|---||
G-|------------0h3--5---5-3~-5-3~---0-3~-3~------------|-3-||
D-|-5-----5-3-----------------------------5-3----------|-3-||
A-|-5-----3-1---------------------------------5-4-3-0~-|-1-||
E-|-3--------------------------------------------------|---||


Guitar II
           E E  S E  S S PM---------------------------- E
e-|-----------------------------------------------------|---||
B-|-----------------------------------------------------|---||
G-|-----------------------------------------------------|-3-||
D-|--------5-3--3-3--5-3-3-3-3-3-3-3-3-3-3-3-3-3-3-3--0-|-3-||
A-|--------3-1--1-1--3-1-1-1-1-1-1-1-1-1-1-1-1-1-1-1--0-|-1-||
E-|-----------------------------------------------------|---||

GUITAR I, II
e-|-----------------------------|
B-|-----------------------------|
G-|-3/5--5~--5/8--8~--8/10--10~-|
D-|-3/5--5~--5/8--8~--8/10--10~-|
A-|-1/3--3~--3/6--6~--6/8---8~--|
E-|-----------------------------|

GUITAR II
e-|-------|
B-|-------|
G-|-------|
D-|-------|
A-|-------|
E-|-12/1--|

GUITAR I
e-|-------------------||
B-|-------------------||
G-|-5b(7)-5b(7)-5b(7)-||
D-|-------------------||
A-|-------------------||
E-|-------------------||


SOLO  0:32
GUITAR I
e-|-----------------------8-6-------6h8p6---------------------------------|
B-|--6h8-6-8-8b(10)--8-6-----8-6-8~-------6h8p6h8~~-8-6-------------------|
G-|-7-------------------7-------------------------------6h7-6h7p6-5--55---|
D-|--------------------------------------------------------------8-8----8-|
A-|-----------------------------------------------------------------------|
E-|-----------------------------------------------------------------------|

e-|---------------------------------------------|
B-|---------------------------------------------|
G-|---5-6-5-6-----------------------------------|
D-|--------8-8-5~~-----------------------4~-5~--|
A-|-----------------4-4-5-4-4------4-4-5--------|
E-|------------------------7--7-5~~-------------|

BASE SOLO 0:32
GUITAR 2
      PM    PM   PM   PM    PM E E E E
e-|-------------------------------------||
B-|-------------------------------------||
G-|-------------------------------------||
D-|-------------------------------------||
A-|-5-----5-----5---5-----5-----3-1-----||
E-|-3-3-3-3-3-3-3-3-3-3-3-3-3-3----3-1--||

VERSO X 2
GUITAR I,II
      PM    PM   PM   PM    PM E E E E              E S E E E E E
e-|---------------------------------------------------------------||
B-|---------------------------------------------------------------||
G-|-------------------------------------------------------3-5-----||
D-|-----------------------------------------------------------3-5-||
A-|-5-----5-----5---5-----5-----5---5-----5--3-1----5-5-5---------||
E-|-3-3-3-3-3-3-3-3-3-3-3-3-3-3-3-3-3-3-3-3-----3-1-3-3-3---------||

CORO
GUITAR I,II                                                   GRII
      PM    PM   PM   PM    PM E E E E            1VEZ|      2 VEZ|
e-|-----------------------------------------------|---------|--------||
B-|-----------------------------------------------|---------|--------||
G-|-----------------------------------------------|---------|--------||
D-|--------3-3-3--------3-3-3---------------------|---------|--SOLO--||
A-|-5-5-5--1-1-1-5-5-5--1-1-1--5-5-5--5-5-5--3-1--|---5-5-5-|--BASE--||
E-|-3-3-3--------3-3-3---------3-3-3--3-3-3-----3-|-1h3-3-3-|--------||
 . . . . . . . . . . . 2 VECES . . . . . . . . . .

SOLO 1:09
GUITAR 1
e-|-----------------------------------------------------------------
B-|--13b(15)~~~~~~-13b(15)-13b(15)-13b(15)h13p11---9~~--------------
G-|----------------------------------------------11--11-9-----9~~---
D-|------------------------------------------------------11-11------
A-|-----------------------------------------------------------------
E-|-----------------------------------------------------------------

e-|-------------------------------------------------||
B-|-------------------------------------------------||
G-|-5-6-5-------------------------------7~~~~-------||
D-|------7-5--7-8h7h5-8h7h5-8h7h5-8h7h5-------------||
A-|-------------------------------------------------||
E-|-------------------------------------------------||

BASE SOLO 1:09
GUITAR II
      PM    PM   PM   PM    PM E E E E
e-|-------------------------------------||
B-|-------------------------------------||
G-|-------------------------------------||
D-|-------------------------------------||
A-|-5-----5-----5---5-----5-----3-1-----||
E-|-3-3-3-3-3-3-3-3-3-3-3-3-3-3----3-1--||

VERSO X 2
GUITAR I,II
      PM    PM   PM   PM    PM E E E E              E S E E E E E
e-|---------------------------------------------------------------||
B-|---------------------------------------------------------------||
G-|-------------------------------------------------------3-5-----||
D-|-----------------------------------------------------------3-5-||
A-|-5-----5-----5---5-----5-----5---5-----5--3-1----5-5-5---------||
E-|-3-3-3-3-3-3-3-3-3-3-3-3-3-3-3-3-3-3-3-3-----3-1-3-3-3---------||


CORO
GUITAR I,II                                                   GRII
      PM    PM   PM   PM    PM E E E E            1VEZ|      2 VEZ|
e-|-------------------------------------------|---------|--------||
B-|-------------------------------------------|---------|--------||
G-|-------------------------------------------|---------|--------||
D-|------333--------3-3-3---------------------|---------|--77777-||
A-|-555--111-5-5-5--1-1-1--5-5-5--5-5-5--3-1--|---5-5-5-|--55555-||
E-|-333------3-3-3---------3-3-3--3-3-3-----3-|-1h3-3-3-|--------||
 . . . . . . . . . . . 2 VECES . . . . . . . . . .


BASE SOLO 1:45
GUITAR II
e-|-------------------------------------------------------------||
B-|-------------------------------------------------------------||
G-|-------------------------------------------------------------||
D-|-777777-555555555-777777777---------3-----------3-5----------||
A-|-555555-333333333-555555555--55555--1-3--55555--1-3-5555555--||
E-|-----------------------------33333----1--33333------3333333--||

e-|---------------------------||
B-|---------------------------||
G-|---------------------------||
D-|---3-----------------------||
A-|---1-3--5-3-2-3-2--2-------||
E-|-----1-----------5---3~~---||

SOLO 1:45
GUITAR I
e-|---------------------------------------------------------
B-|-------------------------------12b(14)-12-10-------------
G-|---11h12~-12-10---12~-12-11-----------------10-10-10h12--
D-|-12------------12----------12----------------------------
A-|---------------------------------------------------------
E-|---------------------------------------------------------

e-|---------------------------
B-|---------------------------
G-|-----10-9------------------
D-|---------10~-9-10-9--------
A-|-------------------10~~----
E-|--------------------------


e-|-------------------------------------------------------------------
B-|-------------------------------------------------------------------
G-|----------------------------------------------7--------------------
D-|-9-10-11-11h10h9--9-11h10h9---7-----------6---10b(12)-9-10-9-------
A-|-----------------------------9-9-7-----7-9-9~---------------10-10~~
E-|----------------------------------9-7-9----------------------------

e-|----------------------------------------------------------------
B-|----------------------------------------------------------------
G-|-----5-6b(8)~~-5-6b(8)~~-5-6b(8)~~-5-6b(8)~~-5-6b(8)~~-5-6b(8)~~
D-|-7-8------------------------------------------------------------
A-|----------------------------------------------------------------
E-|----------------------------------------------------------------

e-|--------------------||
B-|--6-5-4-5-4---------||
G-|------------6-------||
D-|--------------5~~---||
A-|--------------------||
E-|--------------------||


INTERMEDIO y SOLO 2:19
GUITAR II Y I
e-|-----------------------------------------------------------------
B-|---------------3-----4-----5------------------5-----6------7-----
G-|---------------5b(7)-6b(8)-7b(9)--------------7b(9)-8b(10)-9b(11)
D-|----------5-3----------------------------7-5---------------------
A-|-3-1--5-3----5------------------5-3--7-5----7--------------------
E-|----3----5--------------------------5----7-----------------------

e-|----------------------------------------
B-|-----------------7------8-------9-------
G-|-----------------9b(11)-10b(12)-11b(13)-
D-|------------9-7-------------------------
A-|---7-5--9-7----9------------------------
E-|-------7----9---------------------------


e-|--------------------------------------------------
B-|-------------------9-------10------11~~~----------
G-|-------------------11b(13)-12b(14)-13b(15)~~~-----
D-|------------11-9----------------------------------
A-|-9-7--11-9------11--------------------------------
E-|----9-----11--------------------------------------

SOLO: 2:19
GUITAR I
e-|------------------------------------------18b(20)-18~----
B-|---20b(21)~~-18-20-18-20-20b(21)-20-18-16----------------
G-|---------------------------------------------------------
D-|---------------------------------------------------------
A-|---------------------------------------------------------
E-|---------------------------------------------------------

e-|------------------------------------------------------||
B-|-20-18-16---17----------------------------------------||
G-|---------18~--18-16-18-16-----------------------------||
D-|-------------------------17-17~~----------------------||
A-|------------------------------------------------------||
E-|------------------------------------------------------||

e-|---------------------------------------------------------------||
B-|-12-----12-----12-----12-12b(13)-12-13-12----------------------||
G-|---1212---1212---1212--------------------13-12-10--10-12~~-----||
D-|-------------------------------------------------12------------||
A-|---------------------------------------------------------------||
E-|---------------------------------------------------------------||

BASE SOLO 2:19
GUITAR II
      PM    PM   PM   PM    PM E E E E
e-|-------------------------------------||
B-|-------------------------------------||
G-|-------------------------------------||
D-|-------------------------------------|| 3VECES
A-|-5-----5-----5---5-----5-----3-1-----||
E-|-3-3-3-3-3-3-3-3-3-3-3-3-3-3----3-1--||
      PM    PM   PM   PM    PM E E E E
e-|-------------------------------------||
B-|-------------------------------------||
G-|----------------------5-3---5-3------||
D-|-------------------------5-3---5-3---||
A-|-5-----5-----5---5-------------------||
E-|-3-3-3-3-3-3-3-3-3-3-3---------------||


VERSO X 2
GUITAR I,II
      PM    PM   PM   PM    PM E E E E              E S E E E E E
e-|---------------------------------------------------------------||
B-|---------------------------------------------------------------||
G-|-------------------------------------------------------3-5-----||
D-|-----------------------------------------------------------3-5-||
A-|-5-----5-----5---5-----5-----5---5-----5--3-1----5-5-5---------||
E-|-3-3-3-3-3-3-3-3-3-3-3-3-3-3-3-3-3-3-3-3-----3-1-3-3-3---------||


CORO
GUITAR I,II                                                   GRII
      PM    PM   PM   PM    PM E E E E            1VEZ|      2 VEZ|
e-|-----------------------------------------------|---------|--------||
B-|-----------------------------------------------|---------|--------||
G-|-----------------------------------------------|---------|--------||
D-|--------3-3-3--------3-3-3---------------------|---------|--77777-||
A-|-5-5-5--1-1-1-5-5-5--1-1-1--5-5-5--5-5-5--3-1--|---5-5-5-|--55555-||
E-|-3-3-3--------3-3-3---------3-3-3--3-3-3-----3-|-1h3-3-3-|--------||
 . . . . . . . . . . . 2 VECES . . . . . . . . . .


INTERLUDIO
GUITAR I,II
e-|-----------------------------------------||
B-|-----------------------------------------||
G-|-----------------------------------------||
D-|-0-3-0-5h3h0--0-5-0-7h5h0----------------||
A-|------------5----------------------------||
E-|-----------------------------------------||

GUITAR II
e-|--------------------|--------------------------|
B-|--------------------|--------------------------|
G-|--------------------|--------------------------|
D-|--------------------|--------------------------|
A-|---------------1~~--|---------------------8~~--|
E-|-3-1-1-3--1-1-3-----|-3/10-8-8-10--8-8-10------|
. . . . . 4 VECES . . .- - - -X4 BASE riff - - - -

RIFF
GUITAR I
e-|------------------------10-10-131313131313-----||
B-|------------------------10-10-101010101010-----||
G-|------------------------10-10-101010101010-----||
D-|-----------------------------------------------||
A-|-----------------------------------------------||
E-|-----------------------------------------------||

SOLO 3:16
GUITAR I
e-|-------------------18b(20)-----------------------
B-|-18b(20)~~-18-16-15-------19p16-18~~-18-16-15----
G-|---------------------------------------------17~-
D-|-------------------------------------------------
A-|-------------------------------------------------
E-|-------------------------------------------------

e-|--------------------------------------
B-|--------------------------------------
G-|-15h17p15--15-------------------------
D-|---------17--17-15h17p15h17p15h17p17--
A-|------------------------------------17
E-|--------------------------------------

e-|----------------------------------------------------------||
B-|------------------------------18b(20)-18b(20)-18b(20)~~~--||
G-|-15--17b(18)-17-15-17-15----------------------------------||
D-|---15-------------------17-15-----------------------------||
A-|----------------------------------------------------------||
E-|----------------------------------------------------------||

e-|-20b(22)-20b(22)-18~~~~------||
B-|-----------------------------||
G-|-----------------------------||
D-|-----------------------------||
A-|-----------------------------||
E-|-----------------------------||

BASE SOLO 3:16
GUITAR II
e-|--------------------|-------------------|
B-|--------------------|-------------------|
G-|--------------------|-------------------|
D-|--------------------|--7~~~~~-----------|
A-|---------------1~~--|--5~~~~~---5-5-5~--|
E-|-3-1-1-3--1-1-3-----|-----------3-3-3~--|
. . . . . 4 VECES . .

SOLO 3:28
e-|-21b(23)~~~-20-21-20-21-21b(23)~~~~-21b(23)-21h20h18--18-----18~~
B-|----------------------------------------------------20--20-18----
G-|-----------------------------------------------------------------
D-|-----------------------------------------------------------------
A-|-----------------------------------------------------------------
E-|-----------------------------------------------------------------

e-|-----------------------------------------------||
B-|-----------------------------------------------||
G-|-19h17h16-16-16-17-17h19-16h17p16--------------||
D-|---------------------------------17-17~~-------||
A-|-----------------------------------------------||
E-|-----------------------------------------------||

BASE SOLO 3.28
GUITAR II
      PM    PM   PM   PM    PM E E E E
e-|-------------------------------------||
B-|-------------------------------------||
G-|-------------------------------------||
D-|-------------------------------------|| 3VECES
A-|-5-----5-----5---5-----5-----3-1-----||
E-|-3-3-3-3-3-3-3-3-3-3-3-3-3-3----3-1--||
      PM    PM   PM   PM    PM E E E E
e-|-------------------------------------||
B-|-------------------------------------||
G-|----------------------5-3---5-3------||
D-|-------------------------5-3---5-3---||
A-|-5-----5-----5---5-------------------||
E-|-3-3-3-3-3-3-3-3-3-3-3---------------||

ROSASCHAY
GUITAR II
e-|--------------------------------------||
B-|--------------------------------------||
G-|--------------------------------------||
D-|--------------------------------------||
A-|-5~~~~~~~~~~~~~~~~--3-1---3-1---------||
E-|-3~~~~~~~~~~~~~~~~-----3-1---3-1------||

e-|----------------------------------------------------------||
B-|----------------------------------------------------------||
G-|---------------------------------5-3----------------------||
D-|------------------------------------5-3-------------------||
A-|-5~~~~~~~~~~~~~~~~--3-1---3-1-----------5--5--5--5--5-----||
E-|-3~~~~~~~~~~~~~~~~-----3-1---3-1--------3--3--3--3--3-----||

SOLO FINAL
GUITAR I
e-|--19b(21)-19-17-15---19h17h15--19h17h15--19h17h15-||
B-|------------------17---------17--------17---------||
G-|--------------------------------------------------||
D-|--------------------------------------------------||
A-|--------------------------------------------------||
E-|--------------------------------------------------||

e-|12h10------12h10--------12h10------12h10---------ETC . . . ||
B-|-----13h12-------13h12--------13h12------13h12-------------||
G-|-----------------------------------------------------------||
D-|-----------------------------------------------------------||
A-|-----------------------------------------------------------||
E-|-----------------------------------------------------------||


 LETRAS

  Pawarqamuy lluksirqamuy corazón  contento
  G5                      A5#  C5 A5# G5
  Pawarqamuy lluksirqamuy corazón contento
   G5                     A5#  C5 A5# G5
  Killa qawariq tumpachalla corazón contento
   G5                       A5#  C5 A5# G5
  Inti qawariq tumpachala corazón contento
   G5                     A5#  C5 A5# G5

  Kuyaqchallaykim suyachkaikin Corazón contento
                               A5#  C5 A5# G5
  Waylluqchalla ikym suyawankichu suyachkaykym corazón contento
                                               A5#  C5 A5# G5
  Kuyawankichu icha manachu corazón contento
  G5                        A5#  C5 A5# G5
  Waylluwankichu icha manachu corazón contento.
   G5                         A5#  C5 A5# G5

  Hayy rusaschay rusaschay mayu patapi rusaschay
   G5                       G5
  Qampa kausa ynikipi yaqalla lluchkaykamuni
  G5                           G5
  yaqalla urmaykamuni.


A ESTA CHIKA LA CONOCI EN LA CEPRE .. . DONDE ESTAS PA...A
TE BUSCO Y NO TE ENCUENTRO
Suggest correction
Give kudos to tab author, rate the tab!
1 2 3 4 5
comments
print report bad tab
guest
You may want to rate the tab now too:
select rating
Wanna post a correction for this tab? Suggest correction