Oops, an error
Loading. Please wait.

Agosto Fue Solo El Comienzo Tab

11 views 1 this week
no commentswrite comment
1 2 3 4 5
3 more votes to show rating
add to favorites
launch autoscroll
font size
0
reset
how to read this tab
guitar tuner
Autoscroll
slow
fast
+/-
esc
set tempo
stop
Help us to improve Ultimate-Guitar.com Take our survey!
×
LA Ultima Fotografia
Agosto Fue Solo El Comienzo (El Romance Sangriento)

Tanto que la piden ta con arregloz i too xD ah muy buena banda
por cierto. Ahh zubi nuevaz tabz de la carroza plaztica
i del nuevo dizco de diazepunk xekenlaz

[Intro 1]

  C#sus2    C#m              C#sus2    C#m
|-4--4-4--4-4-4-4--4-4-4-4---4--4-4--4-4-4-4--4-4-4-4-----|
|-4--4-4--4-5-5-5--5-5-5-5---4--4-4--4-5-5-5--5-5-5-5-----|
|-6--6-6--6-6-6-6--6-6-6-6---6--6-6--6-6-6-6--6-6-6-6-----|
|-6--6-6--6-6-6-6--4-4-4-4---4--4-4--4-4-4-4--4-4-4-4-----|
|-4--4-4--4-4-4-4--4-4-4-4---4--4-4--4-4-4-4--4-4-4-4-----|
|---------------------------------------------------------|

  Am                         Bm       Am
|-5--5-5--5-5--5-5--5-5-5-5--7-7-7--7-5--5-5--5-5-5-5-----|
|-5--5-5--5-5--5-5--5-5-5-5--7-7-7--7-5--5-5--5-5-5-5-----|
|-5--5-5--5-5--5-5--5-5-5-5--7-7-7--7-5--5-5--5-5-5-5-----|
|-7--7-7--7-7--7-7--7-7-7-7--9-9-9--9-7--7-7--7-7-7-7-----|
|-7--7-7--7-7--7-7--7-7-7-7--9-9-9--9-7--7-7--7-7-7-7-----|
|-5--5-5--5-5--5-5--5-5-5-5--7-7-7--7-5--5-5--5-5-5-5-----|

Lo de arriba se repite dos veces

Y en la segunda vez que se repite entra este arpegio :

|---------------------------------------------------------|
|---------4---------------4---------------4-------4-------|
|-------4---4-----------4---4-----------4---4-----4-------|
|---2---------2-----2---------2-----2---------2---2-------|
|-4---4-----------4---4-----------4---4-----------4-------|
|---------------------------------------------------------|

[Intro 2]

   C#sus2     C#m             C#sus2     C#m
|----------------------------------------------------------|
|----------------------------------------------------------|
|-8-8-8--8-9--9-9--9-9-9-9---8-8-8--8-9--9-9--9-9-9-9------|
|-x-x-x--x-x--x-x--x-x-x-x---x-x-x--x-x--x-x--x-x-x-x------|
|-6-6-6--6-7--7-7--7-7-7-7---6-6-6--6-7--7-7--7-7-7-7------|
|----------------------------------------------------------|

  Am                          Bm       Am
|----------------------------------------------------------|
|-11-11-11-11-11-11-11-11-11-11-11-11-11-11-11--11-11------|
|--x--x--x--x--x--x--x--x--x--x--x--x--x--x--x---x--x------|
|--9--9--9--9--9--9--9--9--9--9--9--9--9--9--9---9--9------|
|----------------------------------------------------------|
|----------------------------------------------------------|

   C#sus2     C#m             C#sus2     C#m
|----------------------------------------------------------|
|----------------------------------------------------------|
|-8-8-8--8-9--9-9--9-9-9-9--8-8-8--8-9--9-9--9-9--9-11-----|
|-x-x-x--x-x--x-x--x-x-x-x--x-x-x--x-x--x-x--x-x--x--x-----|
|-6-6-6--6-7--7-7--7-7-7-7--6-6-6--6-7--7-7--7-7--7--9-----|
|----------------------------------------------------------|

  Am                          Bm       Am
|----------------------------------------------------------|
|-11-11-11-11-11-11-11-11-11-------------------------------|
|--x--x--x--x--x--x--x--x--x--9--9-9--9-9--9-9--8-8-8-8--8-|
|--9--9--9--9--9--9--9--9--9--x--x-x--x-x--x-x--x-x-x-x--x-|
|-----------------------------7--7-7--7-7--7-7--6-6-6-6--6-|
|----------------------------------------------------------|

[Verso] ----> Va con las notas y el arpegio del Intro 1

Esta noche quiero morir junto a ti con el arma en mi mano,
Que todos sean testigos de mis razones,
es facil cuando se hace tan publico.
Dos palabras tuyas bastaron
Lejos del cielo, (hirviendo en el infierno), lejos del cielo

[Coro] -----> Va con el Riff y las notas de abajo

Como pudiste decir?
Como pudiste pensar que olvidara todo?
Hay Sangre en toda la pared y un ultimo suspiro para decir...

  C#5            E5
|---------------------------------------------------------|
|-9-9--10-10-10--12-12-12-12-12-12------------------------|
|-9-9---9--9--9---9--9--9--9--9--9------------------------|
|---------------------------------------------------------| [x8]
|---------------------------------------------------------|
|---------------------------------------------------------|

[Break]

   C#sus2     C#m            C#sus2     C#m
|----------------------------------------------------------|
|----------------------------------------------------------|
|-8-8-8--8-9--9-9--9-9-9-9---8-8-8--8-9--9-9--9-9-9-9------|
|-x-x-x--x-x--x-x--x-x-x-x---x-x-x--x-x--x-x--x-x-x-x------|
|-6-6-6--6-7--7-7--7-7-7-7---6-6-6--6-7--7-7--7-7-7-7------|
|----------------------------------------------------------|

  Am                           Bm       Am
|----------------------------------------------------------|
|-11-11-11-11-11-11-11-11-11-11-11-11-11-11-11--11-9-------|
|--x--x--x--x--x--x--x--x--x--x--x--x--x--x--x---x-x-------|
|--9--9--9--9--9--9--9--9--9--9--9--9--9--9--9---9-7-------|
|----------------------------------------------------------|
|----------------------------------------------------------|

   C#sus2     C#m             C#sus2     C#m
|------------------------------------------------------------------------|
|------------------------------------------------------------------------|
|-8-8-8--8-9--9-9--9-9-9-9--13-13-13-13-13-13-13-13-11-11-11-11-11-11-11-|
|-x-x-x--x-x--x-x--x-x-x-x---x--x--x--x--x--x--x--x--x--x--x--x--x--x--x-|
|-6-6-6--6-7--7-7--7-7-7-7--11-11-11-11-11-11-11-11--9--9--9--9--9--9--9-|
|------------------------------------------------------------------------|

   C#sus2     C#m            C#sus2     C#m
|----------------------------------------------------------|
|----------------------------------------------------------|
|-8-8-8--8-9--9-9--9-9-9-9---9--9-9--9-9--9-9-8------------|
|-x-x-x--x-x--x-x--x-x-x-x---x--x-x--x-x--x-x-x------------|
|-6-6-6--6-7--7-7--7-7-7-7---7--7-7--7-7--7-7-6------------|
|----------------------------------------------------------|

[Verso] ----> Va con las notas y el apregio del Intro 1

Dices que el amor no existe, yo pensaba opuesto,
hasta que el asesino apuñal mi corazon y bebio mi sangre.
Se que disfrutaste el sabor,
porque una vez que tienes el poder nadie puede pararte.
Y yo ahi sentado (con la copa en la mano)
con la arena en los pies

[Coro] -----> Va con el Riff y las notas de abajo

Como pudiste decir?
Como pudiste pensar que olvidara todo?
Hay Sangre en toda la pared y un ultimo suspiro para decir...

  C#5            E5
|---------------------------------------------------------|
|-9-9--10-10-10--12-12-12-12-12-12------------------------|
|-9-9---9--9--9---9--9--9--9--9--9------------------------|
|---------------------------------------------------------| [x8]
|---------------------------------------------------------|
|---------------------------------------------------------|

[Break]

    E5      C#5
|---------------------------------------------------------|
|---------------------------------------------------------|
|-9-9-9-9---9-8-6-4---------------------------------------|
|-9-9-9-9---x-x-x-x---------------------------------------|
|-7-7-7-7---7-6-4-2------6h7-[x15]-6----------------------|
|---------------------------------------------------------|

Despues solo el bajo y la bateria luego entra este riff

|--7----------------7-------------------------------------|
|--7-9-10--10-9-----7-9-10--10-9-12-----------------------|
|---------------9-----------------9-----------------------|
|---------------------------------------------------------|
|---------------------------------------------------------|
|---------------------------------------------------------|

[Interdulio]

El canto de tu voz al decir mi nombre
es sinfonia que aumenta todo mi rencor.
Porque siempre obtienes todo lo que quieres
y aun asi te crees la reina del drama.
Y ah estas parada en la mitad de la calle,
no hables que lo veo todo en tus ojos.
Estas asustada, yo con el arma en la mano,
es hora de irnos juntos al infierno.

En la segunda vez que se repite el verso de arriba entra este arpegio

|---------------------------------------------------------|
|---------------------------------------------------------|
|------4--------4--------4--------4-----------------------|
|----2---2----2---2----2---2----2---2---------------------| [x2]
|--0--------2--------4--------2---------------------------|
|---------------------------------------------------------|

|---------------------------------------------------------|
|-[*]-----------------------------------------------------|
|------4--------4--------4--------4-----------------------|
|----2---2----2---2----2---2----2---2---------------------|
|--0--------2--------4--------2---------------------------|
|---------------------------------------------------------|

|---------------------------------------------------------|
|---------------------------------------------------------|
|------4--------4--------4--------4-----------------------|
|----2---2----2---2----2---2----2---2---------------------|
|--0--------2--------4--------2---------------------------|
|---------------------------------------------------------|

[*] <-- Esto va donde aparece el asterisco
|-----------7----------------7----------------------------|
|-7/9-------7-9-10--10-9-----7-9-10--10-9-12--------------|
|------------------------9-----------------9--------------|
|---------------------------------------------------------|
|---------------------------------------------------------|
|---------------------------------------------------------|

En la Tercera vez que se repite el verso de arriba entran octavas

|---------------------------------------------------------|
|---------------------------------------------------------|
|-9--9-9--9-9--9-9--9-9-9-9-------------------------------|
|-x--x-x--x-x--x-x--x-x-x-x-------------------------------|
|-7--7-7--7-7--7-7--7-7-7-7-------------------------------|
|---------------------------------------------------------|

|---------------------------------------------------------|
|---------------------------------------------------------|
|-9--9-9--9-9--9-9--9-9-9-9--8--8-8--8-8--8-8--8-8-8-8----|
|-x--x-x--x-x--x-x--x-x-x-x--x--x-x--x-x--x-x--x-x-x-x----|
|-7--7-7--7-7--7-7--7-7-7-7--6--6-6--6-6--6-6--6-6-6-6----|
|---------------------------------------------------------|

|-----------------------------------------------------------------|
|-----------------------------------------------------------------|
|-9--9-9--9-9--9-9--9-9-9-9--11--11-11--11-11--11-11--11-11-11-11-|
|-x--x-x--x-x--x-x--x-x-x-x---x---x--x---x--x---x--x---x--x--x--x-|
|-7--7-7--7-7--7-7--7-7-7-7---9---9--9---9--9---9--9---9--9--9--9-|
|-----------------------------------------------------------------|

[Coro] -----> Va con el Riff y las notas de abajo

Como pudiste decir?
Como pudiste pensar que olvidara todo?
Hay Sangre en toda la pared y un ultimo suspiro para decir...

  C#5            E5
|---------------------------------------------------------|
|-9-9--10-10-10--12-12-12-12-12-12------------------------|
|-9-9---9--9--9---9--9--9--9--9--9------------------------|
|---------------------------------------------------------|
|---------------------------------------------------------|
|---------------------------------------------------------|

Como pudiste decir?
Como pudiste pensar que olvidara todo?
Hay Sangre en toda la pared y un ultimo suspiro para decir...
(Como pudiste decir?)
Como pudiste mirar donde nadie puede ver?
Hay Sangre en toda la pared y un ultimo suspiro para decir...
(Como pudiste decir?)

  C#5            E5
|---------------------------------------------------------|
|-9-9--10-10-10--12-12-12-12-12-12------------------------|
|-9-9---9--9--9---9--9--9--9--9--9------------------------|
|---------------------------------------------------------|
|---------------------------------------------------------|
|---------------------------------------------------------|

______________________________________________________________________

spectro_punk5@

alaoz!
Suggest correction
Give kudos to tab author, rate the tab!
1 2 3 4 5
comments
print report bad tab
guest
You may want to rate the tab now too:
select rating
Wanna post a correction for this tab? Suggest correction