Oops, an error
Loading. Please wait.

Escena Uno Toma Dos Tab

31 views 1 this week
no commentswrite comment
1 2 3 4 5
3 more votes to show rating
add to favorites
launch autoscroll
font size
0
reset
how to read this tab
guitar tuner
×
Best way to learn
"Escena Uno Toma Dos"
Autoscroll
slow
fast
+/-
esc
set tempo
stop
Esta maso le faltan agregar algunaz cozas que aun no las escucho bien

[Intro 1era guitarra]
|------------------------------------------------------------------------|
|------------------------------------------------------------------------|
|------------------------------------------------------------------------|
|------------------------------------------------------------------------|
|-7-7-7-7-7-7-7-6-7-7-7-7-9-9-11-11-7-7-7-7-7-7-7-6-7-7-7-7-9-9-9-9------|
|------------------------------------------------------------------------|

[Intro 2da guitarra]
|-------------------------------------------------------------------------|
|-------------------------------------------------------------------------|
|-------------------------------------------------------------------------|
|-------------------------------------------------------------------------|
|-------------------------------------------------------------------------|
|-9-9-9-9-9-9-9-9-7-7-5-5-5-5-5-5-5-5-0-0-0-0-0-0-0-0-0-7-7-7-7-7-7-7-7-7-|

|-----------------|
|-----------------|
|-----------------|
|------9----------|
|--7h9---11-9-11--|
|-----------------|

1.
|------------------------------------------------|
|------------------------------------------------|
|-9-9-99-9/8-8/9-9-9-9-9-9-11-11-11-13-13-13-x-x-|
|-x-x-xx-x/x-x/x-x-x-x-x-x--x--x--x--x--x--x-x-x-|
|-7-7-77-7/6-6/7-7-7-7-7-7--9--9--9-11-11-11-x-x-|
|------------------------------------------------|

|------------------------------------------|
|-----------------------------11-11-11-11--|
|-9-9-999-9-9/8-8/9-9-9-9-9-9--x--x--x--x--|
|-x-x-xxx-x-x/x-x/x-x-x-x-x-x--9--9--9--9--|
|-7-7-777-7-7/6-6/7-7-7-7-7-7--------------|
|------------------------------------------|


2.
|------------------------------------------------------------|
|---------------------11-11-11-11----------------------------|
|-9-9-99-9/8-8/9-9-9-9-x--x--x--x-x-9-99-99-99-999/8/4-4/8/9-|
|-x-x-xx-x/x-x/x-x-x-x-9--9--9--9-x-x-xx-xx-xx-xxx/x/x-x/x/x-|
|-7-7-77-7/6-6/7-7-7-7------------x-7-77-77-77-777/6/2-2/6/7-|
|------------------------------------------------------------|

[ Verso igual a Intro ]

[Pre Coro]
|---------------------|
|---------------------|
|-----------8---------|
|------9------7---9---|
|--7-7---7------7-----|
|---------------------|

[Coro]
1.
|------------------------------------------------|
|------------------------------------------------|
|-9-9-99-9/8-8/9-9-9-9-9-9-11-11-11-13-13-13-x-x-|
|-x-x-xx-x/x-x/x-x-x-x-x-x--x--x--x--x--x--x-x-x-|
|-7-7-77-7/6-6/7-7-7-7-7-7--9--9--9-11-11-11-x-x-|
|------------------------------------------------|

|------------------------------------------|
|-----------------------------11-11-11-11--|
|-9-9-999-9-9/8-8/9-9-9-9-9-9--x--x--x--x--|
|-x-x-xxx-x-x/x-x/x-x-x-x-x-x--9--9--9--9--|
|-7-7-777-7-7/6-6/7-7-7-7-7-7--------------|
|------------------------------------------|

2.
|------------------------------------------------------------|
|---------------------11-11-11-11----------------------------|
|-9-9-99-9/8-8/9-9-9-9-x--x--x--x-x-9-99-99-99-999/8/4-4/8/9-|
|-x-x-xx-x/x-x/x-x-x-x-9--9--9--9-x-x-xx-xx-xx-xxx/x/x-x/x/x-|
|-7-7-77-7/6-6/7-7-7-7------------x-7-77-77-77-777/6/2-2/6/7-|
|------------------------------------------------------------|

[ Verso igual a Intro ]

[Pre Coro]
|---------------------|
|---------------------|
|-----------8---------|
|------9------7---9---|
|--7-7---7------7-----|
|---------------------|

[Pre Coro2]
|---------------------|
|---------------------|
|-----------8---------|
|------9----------9---|
|--7-7---7----7-7-----|
|---------------------|
   . .   .    . .

[Coro]
1.
|------------------------------------------------|
|------------------------------------------------|
|-9-9-99-9/8-8/9-9-9-9-9-9-11-11-11-13-13-13-x-x-|
|-x-x-xx-x/x-x/x-x-x-x-x-x--x--x--x--x--x--x-x-x-|
|-7-7-77-7/6-6/7-7-7-7-7-7--9--9--9-11-11-11-x-x-|
|------------------------------------------------|

|------------------------------------------|
|-----------------------------11-11-11-11--|
|-9-9-999-9-9/8-8/9-9-9-9-9-9--x--x--x--x--|
|-x-x-xxx-x-x/x-x/x-x-x-x-x-x--9--9--9--9--|
|-7-7-777-7-7/6-6/7-7-7-7-7-7--------------|
|------------------------------------------|
2.
|------------------------------------------------------------|
|---------------------11-11-11-11----------------------------|
|-9-9-99-9/8-8/9-9-9-9-x--x--x--x-x-9-99-99-99-999/8/4-4/8/9-|
|-x-x-xx-x/x-x/x-x-x-x-9--9--9--9-x-x-xx-xx-xx-xxx/x/x-x/x/x-|
|-7-7-77-7/6-6/7-7-7-7------------x-7-77-77-77-777/6/2-2/6/7-|
|------------------------------------------------------------|

[Interdulio]
|------------------------------------------------------------|
|------------------------------------------------------------|
|--9-99999-9-99999-89-9999-9-8-6-8---------------------------|
|--9-99999-9-99999-89-9999-9-8-6-8---------------------------|
|--7-77777-7-77777-67-7777-7-6-4-6---------------------------|
|------------------------------------------------------------|

______________________________________________________________________

spectro_punk5@

alaoz!
Suggest correction
Give kudos to tab author, rate the tab!
1 2 3 4 5
comments
print report bad tab
guest
You may want to rate the tab now too:
select rating
Wanna post a correction for this tab? Suggest correction