Oops, an error
Loading. Please wait.

Astronomía Razonable Tab

65 views 3 this week
no commentswrite comment
1 2 3 4 5
3 more votes to show rating
add to favorites
launch autoscroll
font size
0
reset
how to read this tab
guitar tuner
×
Best way to learn
"Astronomía Razonable"
Autoscroll
slow
fast
+/-
esc
set tempo
stop
ASTRONOMIA RAZONABLE


Instrucciones:

Bueno, aqui tamos con el temazo. Aviso: la guitarra en segun que trozos
se escucha demasiado débil. He intentando afinar el oido lo máximo que
he podido. Esto es lo que hay, y creo que sigue fiel a la canción:


(punteo inicial)

E---------------|-----------------------------|
B---------------|-----------------------------|
G-----7/9/7/5---|-----------------------------|
D-------------7-|-------5-7--7/9/7--5---------|
A---------------|--5h7----------------5--5/7--|
E---------------|-----------------------------|


(aqui ya entra la música)

E--------------------------------------------------------------------|
B--------------------------------------------------------------------|
G--7/9---7/9/7--5------5--------7/9---7/9/7--------5----7--5----7--5-|
D-----------------5h7----------------------------5---7-------7-------|
A--------------------------------------------5/7---------------------|
E--------------------------------------------------------------------|


E-------------------------------------------|-----------------------------|
B-------8-----------------------------------|--------8---8----------------|
G---7/9-------------9---9-----------5h7p5---|----7/9---9-------9---9------|
D---------------7/9---9----7^-------------7-|--------------7/9---9----5/7-|
A-------------------------------------------|-----------------------------|
E-------------------------------------------|-----------------------------|


Dejame asomar a tu sueño amor..               Ver lo que no ví....

E-------------------------------------------|---------------------------------------|
B-------------------------------------------|---------------------------------------|
G-------5-5----------------5------7-5---7-5-|----7/9/7-5------5-5-----------5-------|
D---5h7------7-5-7-------5---7--------7-----|-------------5/7----------5-7----7-5-7-|
A--------------------5/7--------------------|----------------------5/7--------------|
E-------------------------------------------|---------------------------------------|


Entregarme al vertigo salvaje...      De una astronomía razonable...

E------------------------------------|----------------------------|
B------8---8-------------------------|--------8---8---------------|
G--7/9---9--------9---9-----9/7/9/7--|----7/9---9--------9---9----|
D-------------7/9---9----------------|---------------7/9---9----7-|
A------------------------------------|----------------------------|
E------------------------------------|----------------------------|


Arropados por la bendición...                 Dejaremos toda ley atrás...

    LAm              SOL                       LAm               SOL    
E-------------3-------------3-------7------7-|--------------3----------3-------0-|
B---------1------1--------3------------------|-------1--------1------3-------3---|
G-------2---------------0-------5/7---5/7----|-----2---2-----------0-------2-----|
D-----2---------------0----------------------|---2-------2-------0-------0-------|
A---0----------------------------------------|-0---------------------------------|
E--------------------------------------------|-----------------------------------|

Dejame asomar a tu sueño amor.....           Que es duro aceptar la dictarura....

   LAm              SOL                        LAm               SOL     
E---------------3----------3-------7-----5---|--------------3---------3-------0--|
B--------1--------1------0-----5/7---7/5-----|-------1--------1-----3-------3----|
G------2---2-----------0---------------------|-----2---2----------0-------2------|
D----2-------2-------0-----------------------|---2-------2------0-------0--------|
A--0-----------------------------------------|-0---------------------------------|
E--------------------------------------------|-----------------------------------|


Cerrar los ojos y ver...              Puedo cerrar el alma y amar.....    

E------------------------------------|-------------------------------------------------|
B------8---8-------------------------|--------8---8------------------------------------|
G--7/9---9--------9---9--------------|----7/9---9--------9---9-----7/9/7--9---7/9/7--5-|
D-------------7/9---9------7-7-------|---------------7/9---9----7----------------------|
A------------------------------------|-------------------------------------------------|
E------------------------------------|-------------------------------------------------|


No hay deberes.. que nos llamen...        No doctrinias....... Que seguir....

E----3-2------------------3-2------5-----5|----3-2------------2-|---3-2----------2|
B--------3-----------------------3-----3--|--------3--------3---|-------3------3--|
G----------------5-7----0------5-----5----|-------------0h2-----|----------0h2----|
D--0---------5/7--------------------------|--0------------------|-0---------------|
A-----------------------------------------|---------------------|-----------------|
E-----------------------------------------|---------------------|-----------------|

Cerrar los ojos y ver...

E----3-2-2-----2-0-----------------------|
B------------3-----1----------------1----|
G---------------------------0---0h2---2--|
D--0--------------------0h2--------------|
A----------------------------------------|
E----------------------------------------|

Que la gente... nos acuse...             De conducta inmoral...

E----3-2-----------2----3-2------5------5|-----3-2----------2----3-2----------------|
B--------3-------3-------------3------3--|---------3------3----------3----------5-7-|
G------------0h2-------------5------5----|------------0h2-------------------5h7-----|
D--0------------------0------------------|--0------------------0--------5h7---------|
A----------------------------------------|------------------------------------------|
E----------------------------------------|------------------------------------------|

No te vayas...          de mi lado....        Cerrar los ojos y ver...

E----3-2----------2---------3-2-------5-3-------3-2---3-2---0----------|
B--------3------3-----------------3h5-----3---------------3---1--------|
G-----------0h2--------------------------------------------------------|
D--0----------------------0-------------------0------------------------|
A----------------------------------------------------------------------|
E----------------------------------------------------------------------|


(Aqui ya entra la electrica en quintas, y se puede hacer:)


RE           RE               RE              DO 
Quedate..... Quedate........ Quedateeee a mi laaadooo


Saludos y hasta otra!

-Karmo-
Suggest correction
Give kudos to tab author, rate the tab!
1 2 3 4 5
comments
print report bad tab
guest
You may want to rate the tab now too:
select rating
Wanna post a correction for this tab? Suggest correction