Oops, an error
Loading. Please wait.

En Los Arboles Chords

version 2
version 2

Whole song

53 views 1 this week
no commentswrite comment
1 2 3 4 5
3 more votes to show rating
add to favorites
launch autoscroll
font size
0
reset
transpose
0
reset
display chords
guitar tuner
×
Best way to learn
"En Los Arboles"
Autoscroll
slow
fast
+/-
esc
set tempo
stop
[Intro]
e --------------------------------------
B ---/5--4--5--4--5--4--0--1--0---------
G -------------------------------2------
D ----------------------------------4---
A --------------------------------------
E --------------------------------------

e -----------------------------------------
B ---/5--4--5--4--7--5--4--0--1--0-----0~--
G ----------------------------------2------
D -----------------------------------------
A -----------------------------------------
E -----------------------------------------


Em              C
A veces escribo cartas
G        D      Em  
Para no sentirme atado
Em                   C
Para no aferrarme a remilgos
G       D        Em
Que yo quisiera abolidos
D     Em
De mi vida
D     Em
De mi vida


Em                     C
Y pinto de colores los sobres
G            D       Em
En el remite soy un enigma
Em                 C
Espero siempre una respuesta
G     D        Em
Para sentirme querido
D              Em
Como los niños chicos
D              Em
Como los niños chicos


[Pre-Estribillo]
G
Mensajes que llegaran
D                       Am
Papeles envolviendo una piedra
G
Mensajes de cariño
D                              Am
Que rompieran el cristal de mi cuarto


[Estribillo]
F#            G
Quién pudiese ingerir
Bm          F#
Un fármaco precioso
F#           G
Convertir en realidad
Bm          F#
Todos esos sueños


Em             C
Cartas que me dijesen
G   D  Em
Cosas bonitas
Em                 C
Como que vendrás a maullarme
G             D     Em
De contraseña en la madrugada
D       Em
Bajo mi ventana
D       Em
Bajo mi ventana


Em                      C
Que corriéramos campo a través
G               D            Em
A la luz de los fulgores del alba
Em                       C
Chispas blancas sobre el rojo violento
G        D       Em
Y que hiciésemos cabañas
D       Em
En los árboles
D       Em
En los árboles


[Pre-Estribillo]

[Intro] x 2

[Estribillo]

e -------------------------
B ---0h1--1--1--1--1p0-----
G -------------------------
D -------------------------
A -------------------------
E -------------------------
Suggest correction
Give kudos to tab author, rate the tab!
1 2 3 4 5
comments
print report bad tab
guest
You may want to rate the tab now too:
select rating
Wanna post a correction for this tab? Suggest correction