Oops, an error
Loading. Please wait.

Llanto De Pasión Tab

287 views 3 this week
no commentswrite comment
1 2 3 4 5
3 more votes to show rating
add to favorites
launch autoscroll
font size
0
reset
how to read this tab
guitar tuner
Autoscroll
slow
fast
+/-
esc
set tempo
stop
(versión acústica)

Vamos allá con otro temasooo. Llanto de Pasión (Version Acustica, la que
encontramos en los singles de Nunca el tiempo... y en los conciertos 
del Manolín.

Primero las instrucciones, que son pocas:

Cejilla en el 3º traste


Las partes básicamente son solo tres, pasamos a explicarlas:


PARTE 1:

Hay que jugar bien con el puntellio y los Hammer On, si te empapas bien 
la cancion lo pillarás rapido. Esta parte corresponde al inicio y las 
estrofas.

    LAm            DO       RE (?¿)     
E------------------------------------
B------------0h1---------1-------3---
G---2------------0-------0-------0---
D-------2-------------2-------4------
A---0---------------3-------5--------
E------------------------------------


PARTE 2:

Esto es el estribillo, no hay que tocarlo fiel a como yo lo hago, simplemente
es la idea de los acordes y punteos. Los golpes de acordes cada uno que juegue
con ellos como quiera, yo los prefiero asi. Eso si, el punteo suelto es fiel
a la cancion. 

La ultima nota esta entre parentesis porque corresponderia ya a la primera, es 
para que sepais donde enlazar.

        REm       LAm               SOL
E--------1---1----0-----0-------------3-----------------
B--------3---3----1-----1-------------3-----------------
G--------2---2----0h2---2-------------0-----------------
D-----------------0h2---2-------------0-----------------
A----0----------------------0-3-2-1- -2-------0-2-(0)---
E-----------------------------------3-3---0-3-----------


PARTE 3: 

Es como el estribillo, pero corresponde al trozo de: Ahora ya no hay paloooomasss
Es básicamente arpegiar los acordes y jugar con ellos un poquito.

La ultima nota esta entre parentesis porque corresponderia ya a la primera, es 
para que sepais donde enlazar.


     REm         LAm             SOL         DO (ni hacerle caso...)
E-------1--------------------------------------------------------
B-----3---3------------1---------------3-------------------------
G---2-------2--------2---2---------------0--------0-----0--------
D------------------2-------2------0--------0----2-----2-----2----
A-0--------------0--------------2---2---------3-----2-----2---(0)
E----------------------------------------------------------------


Ahora vamos a ver donde va cada cosa:


(introduccion instrumental)
(PARTE 1)


(PARTE 1)
Me he acordado muchas veces de ti
y hoy pensado en volverte a escribir.
Quiero contarte que buscando entre mis libros
vi tus dibujos y casi te oi decir;

(PARTE 2)
Hola que tal Lico Manuel. Que tal!
Vamos, pero dando la vuelta.
Espera, no me cojas aun 
que esta mi madre en el balcon.

(PARTE 1)
Yo vivo en el mismo lugar
Existe aun aquel bar y el rincon
donde soliamos hablar
Donde escuchabamos nuestra cancion.
Ahora ya no van a merendar
los de la fabrica de gas.

(PARTE 3)
Ahora ya no hay palomas
ni aquel gato que era cazador.
Arrancaron el arbol.
que hacia sombra en tu puerta.

(PARTE 1)
Y casi te oigo decir.
Hola, que tal Lico Manuel?
Casi te puedo imaginar
al ver tu firma en un papel.

(PARTE 1)
Aun te recuerdo muchas veces pienso en ti.
Y hoy he pensado en volverte a escribir
Agua de lluvia, agua de dias que vendran.
Me desperte sin ti. No volveras jamas.

(PARTE 2)
Adios Manuel,Lico Manuel,
me voy hacia el fondo, al mar de la nada.
Y yo aqui tendido estoy
es este lecho de llanto.

(PARTE 2)
Arriba, venga ponte de pio. 
Lo que paso ya no existe, Pues bien
hace ya mas de un mes.
Ahora mejor es olvidar.


(puente instrumental): chatos, improvisaros lo que sea ajajaj


(PARTE 3)
Llanto de pasion
No recuerdo quien fue
a la que tanto ame 
Que cansado que estoy 
Recuerdos y al final
son un cruce de caminos
Que tal Lico Manuel
Ya ves, vuelvo a donde empece.


(PARTE 3)
Llanto de pasion
No recuerdo quien fue
a la que tanto ame 
Que cansado que estoy 
Recuerdos y al final
son un cruce de caminos
Que tal Lico Manuel
Ya ves, vuelvo a donde empece.


(final instrumental): volver a improvisar lo que sea


PUES NADA, QUEDA DEDICADA A TODO MI GRUPO, QUE DISFRUTAMOS MUCHO 
TOCANDO ESTA CANCION EN LOS CONCIERTOS Y VIBRAMOS COMO LOCOS.

SALUDOS! 

-Karmo-
Suggest correction
Give kudos to tab author, rate the tab!
1 2 3 4 5
comments
print report bad tab
guest
You may want to rate the tab now too:
select rating
Wanna post a correction for this tab? Suggest correction