Oops, an error
Loading. Please wait.

Querida Milagros Bass Tab

77 views 1 this week
no commentswrite comment
1 2 3 4 5
3 more votes to show rating
add to favorites
launch autoscroll
font size
0
reset
guitar tuner
Autoscroll
slow
fast
+/-
esc
set tempo
stop
Help us to improve Ultimate-Guitar.com Take our survey!
×
Intro:
    --------|--------|--------|--------|
    --------|--------|--------|--------|
    --------|--------|--------|--------|
    ---00-3-|-5------|---0--3-|-5------|

    --------|--------|--------|--------|
    --------|--------|--------|--------|
    --------|--------|--30--3-|-5------|
    ---0--3-|-5------|--------|--------|

(Entra la voz)
    Esta mañana
    --------|--------|--------|--------|
    --------|--------|--------|--------|
    --------|--------|--------|--------|
    ---00-3-|-5------|---0--3-|-5------|

    Al salir a patrullar
    --------|--------|--------|--------|
    --------|--------|--------|--------|
    --------|--------|--30--3-|-5------|
    ---0--3-|-5------|--------|--------|

    Hallamos muerto
    --------|--------|--------|--------|
    --------|--------|--------|--------|
    --------|--------|--------|--------|
    ---0--3-|-5------|---0--3-|-5------|

    Al soldado Adrián
    --------|--------|--------|--------|
    --------|--------|--------|--------|
    --------|--------|---0--3-|-5------|
    --00--3-|-5------|--------|--------|

    Como manda el reglamento
    -------------|-------------|
    -------------|-------------|
    -3---3-3-3-3-|-5---5-5-5-5-|
    -------------|-------------|

    Procedimos a buscar
    -------------|-------------|
    -------------|--------554--|
    -3---3-3-3-3-|-5-0---------|
    -------------|-------------|


    Los objetos que llevara
    -------------|-------------|
    -------------|-------------|
    -3---3-3-3-3-|-5---5-5-5-5-|
    -------------|-------------|

    y sólo hallamos esta carta:
    -------------|-------------|
    -------------|-------------|
    -3---3-3-3-3-|-5-5---------|
    -------------|-------------|

    Querida Milagros, llevo seis días aquí
te echo de menos: no puedo vivir sin tí.

    He visto las explosiones brillando a mi alrededor,
tengo miedo, no lo oculto: sólo me queda tu amor.

    Por ahora la suerte me ha sonreído
    --------------------|--------------------|
    --------------------|--------------------|
    --------------------|--------------------|
    -1-1--1-1--1-1--1-1-|-3-3--3-3--3-3--3-3-|

    Necesito verte: aquí no hay amigos
    --------------------|--------------------|
    --------------------|--------------------|
    --------------------|--------------------|
    -1-1--1-1--1-1--1-1-|-3-3--3-3--3-3--3-3-|

    No estaría de más que alguien me explicara
    --------------------|--------------------|
    --------------------|--------------------|
    --------------------|--------------------|
    -1-1--1-1--1-1--1-1-|-3-3--3-3--3-3--3-3-|

    que tiene esto que ver contigo y conmigo
    --------------------|--------------------|
    --------------------|--------------------|
    --------------------|-5-5--5-5--5-5--5-5-|
    -1-1--1-1--1-1--1-1-|--------------------|

...y básicamente así es este bajeo que tocaba Antonio Fidel con
El Último de la Fila. Se admiten correcciones. A ver si os animáis
y sacáis bajeos de este gran dúo (sería interesante el del tema 'Las
palabras son cansancio')
Suggest correction
Give kudos to tab author, rate the tab!
1 2 3 4 5
comments
print report bad tab
guest
You may want to rate the tab now too:
select rating
Wanna post a correction for this tab? Suggest correction