Oops, an error
Loading. Please wait.

Sara Bass

55 views 1 this week
no commentswrite comment
1 2 3 4 5
3 more votes to show rating
add to favorites
launch autoscroll
font size
0
reset
guitar tuner
×
Best way to learn
"Sara"
Autoscroll
slow
fast
+/-
esc
set tempo
stop
No es que el tiempo lo cure todo...
-------------|-------------|
-------------|-------------|
-------------|-------------|
--3----3-3---|--3----3-3---|

pero puede ayudar.
Yo no supe cómo tratarte,
No dio para más

Sara dulce         cuéntame
-------------|-------------|
-------------|-------------|
--0----3-5---|--0----3-5---|
-------------|-------------|

el sortilegio aquel
-------------|-------------|
-------------|-------------|
--0----3-5---|--00---3-5---|
-------------|-------------|

que aprendiste de las aves
-------------|-------------|
-------------|-------------|
--0----3-5---|--0----3-5---|
-------------|-------------|

del amanece---er
-------------|-------------|
-------------|-------------|
--0----3-5---|--00---3-5---|
-------------|-------------|

   Secreto suave que he perseguido
-------------|-------------|-------------|-------------|
-------3-3---|-------5-5---|-------3-3---|-------5-5---|
--5-5--------|--3-3--------|--5-5--------|---33--------|
-------------|-------------|-------------|-------------|

  tantas noches sobre tu piel
-------------|-------------|-------------|-------------|
-------3-3---|-------5-5---|-------3-3---|-------5-5---|
--5-5--------|--3-3--------|--5-5--------|---33--------|
-------------|-------------|-------------|-------------|


Bueno, y con esto ya se puede hacer el tema. Que lo disfrutéis
Suggest correction
Give kudos to tab author, rate the tab!
1 2 3 4 5
comments
print report bad tab
guest
You may want to rate the tab now too:
select rating
Wanna post a correction for this tab? Suggest correction