Oops, an error
Loading. Please wait.

Sin Llaves Tab

version 1
version 1

Whole song

89 views 3 this week
no commentswrite comment
1 2 3 4 5
3 more votes to show rating
add to favorites
×
Save as Personal and add changes to this tab that will be seen only by you. Learn more ›
×
You can save this tab as Personal to edit and correct it or add notes. All changes will be seen only by you. Learn more »
save as personal
new!
launch autoscroll
font size
0
reset
how to read this tab
guitar tuner
Autoscroll
slow
fast
+/-
esc
set tempo
stop
Pues aqui os dejo otra cancion que me encanta. Creo que
está bastante bien así, pero si se puede mejorar algo me
lo decís y lo corregimos, ok? Para cualquier duda escribidme


Weno he dividido la cosa en partes, primero os explico cada
una y luego pasamos a la canción.

PARTE 1:
                                        
|----------------------------------------------| 
|---------1-0--------3-0--------1-0--------3-0-| 
|------------------0---------------------0-----|  
|-------2---------------------2----------------|   
|-(0)-0--------0-3--------0-0--------0---------|  
|--------------------------------------3-------| 
   
   *La primera nota entre paréntesis no suena la primera vez, pero si
las siguientes                                          


PARTE 2:
   *Aquí hay que jugar con estas notas para que suene igual que en 
la canción original, si la habéis escuchado sabéis a que me refiero
  **De todas formas así suena bastante bien:

|--------0-----0-----0-----------0-----0-----0-----|
|----------3-----3-----3-----------3-----3-----3---|
|------0-----0-----0-----0-----0-----0-----0-----0-|
|--0-0---------------------0-0---------------------|
|--------------------------------------------------|
|--------------------------------------------------|

PARTE 3:
   *Corresponde al estribillo

|--------------------------------------------------------------------
|------1-0-------3-0-------1-0-------3-0-------1-0-------3-0-------0-
|--------------0---------0---------0---------0---------------------0-
|--0-3-------------------------------------------------0---------0---
|----------0-0-------0-3-------0---------3-3-------0-0-------0-3-----
|--------------------------------3-----------------------------------


|--------
|----1--*
|----0--*  ***Aquí también se juega un poco con estas notas para 
|--2-2--*     conseguir el efecto deseado
|----3--*
|--------

Pasamos a la cancion:

SIN LLAVES
************

INTRO: PARTE 1 + PARTE 1 + PARTE 1 + PARTE 2

PARTE 1
  La vida que espero y esperare 
  a la sombra en el oasis que me invente.
PARTE 1                      
  Como el sabio en las cumbres del saber
  soy alga en el mar de la calma;
PARTE 1
  soy tabla de mi propia salvación.
                                PARTE 2             
  Me quiero y me protejo de mi misma voz.


PARTE 3
  Llévame,
  con mi corazón yo suelo hablar,
  donde reine un tibio sol
PARTE 3
  a la luz de una espiga
  donde calentar
  mis pies descalzos, o quizá donde andar.

INTRO (PARTE 1 TRES VECES + PARTE 2)

PARTE 1
  Quien duda
  no espera
  remanso en el agua fiera.
PARTE 1
  Que pienso
  SI siento,
  anhelos del sentimiento.
PARTE 1
  Mi risa,
  MI tiempo,
                       PARTE 2
  que crezcan ansiosos por enamorar.

PARTE 3
  Llévame
  con mi corazón yo suelo ir.
  al lugar donde nací
PARTE 3
  a buscar caracolas 
  al fondo del mar
  que inunden mi paladar.

PARTE 1
  Despliego mis velas que hay que partir,
  ahora canta el jilguero junto al rosal.
PARTE 1
  El alma remonta, quiere volar,
  hoy es un gavilán en celo.
PARTE 1
  Candiles de aceite habrá que encender
                          PARTE 2
  pintores holandeses mis manos mancharan.
PARTE 1
  En este altar antiguo que levante
  a lo alto de mis horas quiero subir,
PARTE 1
  y como polen nuevo me quiero esparcir
  en un total abandono.
PARTE 1
  Candiles de aceite habrá que encender
                            PARTE 2
  sin llaves a las puertas del instante estoy.

Termina en LAm

===============================================>To M.N.
Suggest correction
Give kudos to tab author, rate the tab!
1 2 3 4 5
comments
print report bad tab
guest
Wanna post a correction for this tab? Suggest correction