Oops, an error
Loading. Please wait.

Sin Llaves Tab

version 2
version 2

Whole song

68 views 3 this week
no commentswrite comment
1 2 3 4 5
3 more votes to show rating
add to favorites
launch autoscroll
font size
0
reset
how to read this tab
guitar tuner
Autoscroll
slow
fast
+/-
esc
set tempo
stop
Help us to improve Ultimate-Guitar.com Take our survey!
×
Tablatura y acordes a la vez.

Hacer caso a ESTOS acordes:

        Am  Cadd9  G  D  F  Em
|-------0----3-----3--2--1--0---|
|-------1----3-----3--3--1--0---|
|-------2----0-----0--2--2--0---|
|-------2----2-----0--0--3--2---|
|-------0----3-----2--X--3--2---|
|-------0----X-----3--X--1--0---|

<----------------INTRO (x3): ---------------->

       Am      Cadd9       Am         G              D            D
|---------------------|---------------------| ------0--0---------0--0-----|
|-------1-0-------3-0-|------1-0-------3-0--| ----3--3--3-3----3--3--3-3--|
|---------------0-----|--------------0------| -----2--2--2------2--2--2---|
|-----2---------------|----2----------------| --00-----------00-----------|
|---00-------03-------|-00--------0---------| ----------------------------|
|---------------------|------------3--------| ----------------------------|

      ^
      | Esa nota no se toca la primera vez (al comenzar la canción).
        Todas las demás veces sí.


- INICIO DE LA LETRA

      Am       Cadd9       Am         G             D              D
|---------------------|--------------------| ------0--0---0----------0----|
|-------1-0-------3-0-|------1-0-------3-0-| ----3--3--3---3---3-3--3-3-3-|
|---------------0-----|--------------0-----| -----2--2--2-------2--2---2--|
|-----2---------------|----2---------------| -000-------------0-----------|
|--00--------03-------|-00--------0--------| -----------------------------|
|---------------------|------------3-------| -----------------------------|

 <--------- 1 -------> <--------- 2 ------>  <------------ 3 ------------->


La vida que espero y esperaré,           --> 1
A LA sombra en el oasis que me inventé.  --> 2

Como el sabio en las cumbres del saber,  --> 1
soy alga en el mar de la calma.          --> 2

Soy tabla de mi propia salvación,        --> 1
me quiero y me protejo de mi misma voz.  --> 2, 3


       F         Am       Cadd9        G
|----------------------|----------------------|
|--------1---------1-0-|------3-0-------1-0---|
|------2---2-----------|----0---------------0-|
|--0-3-----------2-----|----------------------|
|-------------00-------|-03--------0----------|
|----------------------|-------------3--------|

 <--------- 4 --------> <-------- 5 --------->
      F          Am           Cadd9
|----------------------|----------------------|
|--------1---------1-0-|------3--3--3---------|
|------2---2-----------|----0--0--0--0--------|
|--003-----------2-----|------2-2--2--2-------|
|-------------00-------|-03-------------------|
|----------------------|----------------------|

 <-------- 6 ---------> <-------- 7 --------->


       Em
|------0---------------|
|---0---0--0-----------|
|----0---0--0----------|  --> Esta parte (8) se funde
|-----2------2---------|      con el rasgueo del acorde Em.
|----------------------|
|--0-------------------|

 <--------- 8 -------->


Llévame,                                 --> 4
con mi corazón yo suelo hablar,          --> 5
donde reine un tibio sol                 --> 6, 7

A LA luz,                                --> 4
de una espiga donde calentar             --> 5
mis pies descalzos,                      --> 6
o quizá donde andar.                     --> 8

- SOLO DE GUITARRA --> Se toca 1 y 2 (3 veces),
                       y 3 (entre acordes que lo enmascaran)


Quien duda no espera                     --> 1
remanso en el agua fiera.                --> 2

Que pienso si siento,                    --> 1
anhelos del sentimiento.                 --> 2

Mi risa, mi tiempo,                      --> 1
que crezcan ansiosos por enamorar.       --> 2, 3


Llévame,                                 --> 4
con mi corazón yo suelo hablar,          --> 5
donde reine un tibio sol                 --> 6, 7

A LA luz,                                --> 4
de una espiga donde calentar             --> 5
mis pies descalzos,                      --> 6
o quizá donde andar.                     --> 8


Llévame,                                 --> 4
con mi corazón yo suelo ir,              --> 5
al lugar donde nací.                     --> 6, 7

A buscar,                                --> 4
caracolas al fondo del mar               --> 5
que inunden mi paladar.                  --> 6, 8


Despliego mis velas que hay que partir,  --> 1
ahora canta el jilguero junto al rosal.  --> 2

El alma remonta, quiere volar,           --> 1
hoy es un gavilán en celo.               --> 2

Candiles de aceite habrá que encender,   --> 1
pintores holandeses mis manos mancharán. --> 2, 3


En este altar antiguo que levanté        --> 1
a lo alto de mis horas quiero subir,     --> 2

Como polen nuevo me quiero esparcir      --> 1
en un total abandono.                    --> 2

Candiles de aceite habrá que encender    --> 1
sin llaves a las puertas del instante estoy. --> 2, 3


(Termina con el acorde Am)
Cualquier duda o comentario, mi correo. Muchas gracias.
Suggest correction
Give kudos to tab author, rate the tab!
1 2 3 4 5
comments
print report bad tab
guest
You may want to rate the tab now too:
select rating
Wanna post a correction for this tab? Suggest correction