Oops, an error
Loading. Please wait.

Ya No Danzo Al Son De Los Tambores Tab

79 views 1 this week
no commentswrite comment
1 2 3 4 5
3 more votes to show rating
add to favorites
launch autoscroll
font size
0
reset
how to read this tab
guitar tuner
Autoscroll
slow
fast
+/-
esc
set tempo
stop
Help us to improve Ultimate-Guitar.com Take our survey!
×
-Ya no danzo al son de los tambores- (Version Acústica)

Pues aqui estamos otra vez con esta maravillosa cancion, pero esta 
vez con su version acústica. ¿Que donde esta esa canción?
No la encontramos en ningun CD, pero si habeis estado en los 
conciertos la habreis escuchado, y la verdad es una maravilla.
En todo caso estos conciertos los podeis bajar totalmente GRATIS
de estas webs:

 (aqui encontrareis la lista de conciertos a descargar)
 (aqui los videos)
 (esta es la mia xDD)

Empezamos comentando la cancion. Se toca con la cejilla en el segundo traste,
eso pa empezar. Segundo, se compone de tres partes: El punteo, el segundo punteo
y los acordes del estribillo.
Vamos con ellas:

Parte A (el punteo y la parte de: como barca en la mar....)

E|----------------|-------|-----------|------------|-------------|-------|-----------|----------
B|----------------|-------|-----0-----|------------|-------------|-------|-----0-----|---------3
G|-------0--------|-----0-|-------0---|------0---0-|-----0-------|-----0-|-------0---|-----0----
D|-----2---2------|-0)2---|---0-----0-|----4---4---|---2---2-----|-0)2---|---0-----0-|---4---4--
A|---2-------2--3-|-------|-----------|-0----------|-2-------2-3-|-------|-----------|-0--------
E|-0--------------|-------|-3---------|------------|-------------|-------|-3---------|----------
   Como         barca en la mar,      que encendida  embrea,   muge  y zozobra.


Parte B (La de: No es que a tu paso, ardan candiles...)

E|-------------|-------------|-------------|----------|
B|-----------3-|-------------|-----------3-|-------3--|
G|-------0-----|-------0-----|-------0-----|---0------|
D|-----4---4---|-----4---4-0-|-----4---4---|-----4----|
A|---0---------|---0---------|---0---------|-0--------|
E|-0-----------|-0-----------|-0-----------|----------|


Empezmos con la cancion!! (se toca bastante rapido, cuesta coger la velocidad, por
lo menos a mi! jajaaj)

(Intro: Parte A)


(Parte A)
Como barca en la mar
que encendida en brea muge y zozobra.
Me enciendo así yo
con tu recuerdo, con tu mención.
Se me altera el pulso, la sangre,
como a un niño ladrón.
Y mi débil engranaje golpetea azorado,
en completa confusión.

(Parte B)
No es que a tu paso ardan candiles, inflama el aire
la yesca que es tu sola presencia.

(Parte A)
Si tan sólo al pensar
que él encontrará
morada entre tus pies
tiemblo de ira y de celos,
que no se alterará mi condición


      SIm            LA           SOL  
al saberte al alcance de sus besos bandoleros...
      SIm               LA          SOL
Prendí hogueras que no supe mantener.
      SIm    
Ya no danzo, loco,
   LA               RE
al son de los tambores,

             (Aqui entra la Parte A)
porque al fin,
porque al fin te consiguió él,
que tiene un corazón tan guerrero como cruel.
           
           Mim   Do (032033)   Sol
Tan infiel.


(Parte B)
Que se desencajen las baldosas a mi paso,
que se abran simas,
que se desplomen las paredes
sobre mi, que en tu regazo supliqué.

(Parte A)
Como barca que en la mar
que ha roto el timón
y al pairo va.
Como barca en la mar, yo ardo por ti
custodio que fui.

(Acordes)
Que no piense que obtiene tu favor
por dar tesoros
que más tarde no podrá recuperar.                (aqui entra la Parte A)
Porque el admitirlos son maneras tuyas de confiar.
Confundir y confiar
para golpear después de confiar.
Confundir y confiar
para golpear después. Confiar.

(Acordes Mim Do Sol)


Pues nada, si no sale a la primera, mucha practica!!
Se la dedico a todos aquellos que van a sus conciertos.

Un abrazo!

-Karmo-
Suggest correction
Give kudos to tab author, rate the tab!
1 2 3 4 5
comments
print report bad tab
guest
You may want to rate the tab now too:
select rating
Wanna post a correction for this tab? Suggest correction