Oops, an error
Loading. Please wait.

Altero Mi Cuerpo Tab

version 2
version 2

Whole song

77 views 1 this week
no commentswrite comment
1 2 3 4 5
3 more votes to show rating
add to favorites
×
Save as Personal and add changes to this tab that will be seen only by you. Learn more ›
×
You can save this tab as Personal to edit and correct it or add notes. All changes will be seen only by you. Learn more »
save as personal
new!
launch autoscroll
font size
0
reset
how to read this tab
guitar tuner
Autoscroll
slow
fast
+/-
esc
set tempo
stop
Bueno este es el solo de este tema del disco en directo, cualkiera de
los dos total es el mismo solo:

|-----------------------------------------|
|----------------8-8----------------------|
|--------------9-----10-9--12b--10-7------|
|-/(10)-10--10----------------------------|
|-----------------------------------------|
|-----------------------------------------|

|--------------------------------------------------------------|
|--------------------------------------------------------------|
|--7-7-7-----------10-10-10-9-7--5h7p5h7p5---------------7-----|
|--------10-7--10--------------------------7-----10-9-10---10--|
|--------------------------------------------------------------|
|--------------------------------------------------------------|

|-----------------------------------|
|----------8-8----------------------|
|--------9-----10-9--12b--10-7------|
|-----10----------------------------|
|-----------------------------------|
|-----------------------------------|

|--------------------------------------------------------------|
|--------------------------------------------------------------|
|--7-7-7-----------10-10-10-9-7--5h7p5h7p5---------------7-----|
|--------10-7--10--------------------------7-----10-9-10---10--|
|--------------------------------------------------------------|
|--------------------------------------------------------------|

Asi es muy facil, pueden meterle un armonico en el bending y suena
re-weno
Suggest correction
Give kudos to tab author, rate the tab!
1 2 3 4 5
comments
print report bad tab
guest
Wanna post a correction for this tab? Suggest correction