Oops, an error
Loading. Please wait.

Amigo Imaginario Tab

50 views 1 this week
no commentswrite comment
1 2 3 4 5
3 more votes to show rating
add to favorites
launch autoscroll
font size
0
reset
how to read this tab
guitar tuner
×
Best way to learn
"Amigo Imaginario"
Autoscroll
slow
fast
+/-
esc
set tempo
stop
INTRO:
e|-------3-------------3--------------3-----5)------
B|--3--5--5-555---3--5--5-555----3--5--5-55----5----
G|--------------------------------------------------
D|--------------------------------------------------
A|--------------------------------------------------
E|--------------------------------------------------

e|-------3-------------3--------------3------3-5-3--
B|--3--5--5-555---3--5--5-555----3--5--5-555-------5
G|--------------------------------------------------
D|--------------------------------------------------
A|--------------------------------------------------
E|--------------------------------------------------

MI5                  DO5
Tiene un amigo imaginario
LA5
que le pide que asesine al vecindario,
MI5            DO5
y no le deja vivir
LA5
clavando una obsesión en su cabeza.
MI5                  DO5
Y la emprende, sin prisas,
LA5
desde el primero hacia arriba.
MI5                  DO5
Tranquilo le cuenta
LA5
que la muerte es muy zalamera.


 - INTRO -


MI5       DO5          LA5
La dura jornada de trabajo
                        MI5
y la hemoglobina dejan agotado.
          DO5     LA5
Descansa tras la matanza.
MI5            DO5
Sirenas, ya llegan,
LA5
alguien ha debido llamar a la pasma.
MI5            DO5
Y aquel plantado
LA5
con su amigo imaginario.
DO5           RE5      (RE5-MI5)x2
Lo llama, lo llama.
DO5           RE5        (RE5-MI5)x2
¿Donde esta lo prometido?
DO5           RE5        (RE5-MI5)x2
Para un poco y se da cuenta
DO5         RE5
que lo prometido es
MI5          FA# (en 2da)
dejarlo bien jodido.


MI5            DO5
Tiene un amigo imaginario
LA5
que le pide que asesine al vecindario,
MI5            DO5
y no le deja vivir
LA5
clavando una obsesión en su cabeza.
MI5       DO5    LA5
Y lo llama, lo llama.
MI5       DO5          LA5
¿Dónde esta lo prometido???


e|-------3-------------3--------------3-----5)------
B|--3--5--5-555---3--5--5-555----3--5--5-55----5----
G|--------------------------------------------------
D|--------------------------------------------------
A|--------------------------------------------------
E|--------------------------------------------------

e|-------3-------------3--------------3------5)-5---
B|--3--5--5-555---3--5--5-555----3--5--5-555--------
G|--------------------------------------------------
D|--------------------------------------------------
A|--------------------------------------------------
E|--------------------------------------------------

e|-------3---------3----------3----3-5-3--|    |-------3-
B|--3--5--5---3--5--5----3--5--5---------5|    |--3--5--5
G|----------------------------------------| x2 |---------
D|----------------------------------------|    |---------
A|----------------------------------------|    |---------
E|----------------------------------------|    |---------
Suggest correction
Give kudos to tab author, rate the tab!
1 2 3 4 5
comments
print report bad tab
guest
You may want to rate the tab now too:
select rating
Wanna post a correction for this tab? Suggest correction