Oops, an error
Loading. Please wait.

Ay, Carmela! Bass Tab

95 views 1 this week
no commentswrite comment
1 2 3 4 5
3 more votes to show rating
add to favorites
launch autoscroll
font size
0
reset
guitar tuner
Autoscroll
slow
fast
+/-
esc
set tempo
stop
Help us to improve Ultimate-Guitar.com Take our survey!
×
La canción empieza suave, con una especie de arpegio.
Cuando comienza fuerte, ahí entramos con el bajo.
Escucha bien la canción para que identifiques donde están los cortes.


G ---------------------------------------------------------
D ---------------------------------------------------------
A---5-5-5-5-5---------------5-5-5-5-5----------------------
E --------------5-5-5-5-5--------------5-5-5-5-5-----------

G ---------------------------------------------------------
D ---------------------------------------------------------
A ----------8-8-8-7-7-7-5-5-5-4/7--------------------------
E ---------------------------------------------------------

G ---------------------------------------------------------
D ---------------------------------------------------------
A ----------8-8-8-7-7-7-5-5-5------------------------------
E ------------------------------5-5-5-5-5-----------------


Para dudas e inquietudes, ahí tienen mi correo.
Buena suerte.
Suggest correction
Give kudos to tab author, rate the tab!
1 2 3 4 5
comments
print report bad tab
guest
You may want to rate the tab now too:
select rating
Wanna post a correction for this tab? Suggest correction