Oops, an error
Loading. Please wait.

Canción Del Gitano Apaleado Tab

version 2
version 2

Whole song

37 views 1 this week
no commentswrite comment
1 2 3 4 5
3 more votes to show rating
add to favorites
launch autoscroll
font size
0
reset
how to read this tab
guitar tuner
×
Best way to learn
"Canción Del Gitano Apaleado"
Autoscroll
slow
fast
+/-
esc
set tempo
stop
bueno esta cancion la korregi kuando estaba EUKZ en chile y desde entonces
no la e podido subir por tiempo.


               CANCION DEL GITANO APALEADO.

INTRO:
      F GA C  X2
F
Veinticuatro bofetadas,
A
veinticinco bofetadas,
F
luego mi madre a la noche
A
me pondrá en papel de plata.
F GA C          F GA C
        me pondrá en papel de plata.


G-------5----------         G----------------
D--7-7-----7-5----- X3 ---) D--7-7--5h7p5----
A---------------7--         A----------------

F
Hay mando de los civiles
A
que estás arriba en tu sala,
F
¿No habrá pañuelos de seda
A
para limpiarme la cara?
F GA C      F GA C
        para limpiarme la cara.


G-------5----------         G----------------
D--7-7-----7-5----- X3 ---) D--7-7--5h7p5/3--
A---------------7--         A----------------


F                         A
Guardia civil Guardia civil caminera,
C         G      A
dadme unos sorbitos de agua.             X2
C         G      A
Agua con peces y barcos,


SOLO
G|--10--12-12b/14----14-12-------------------------------------|
D|-------------------------14---10--12-12b/14--14--12p10-------|  x2
A|--------------------------------------------------------12---|

F A C G (Pm)
AGUA


F                         A
Guardia civil Guardia civil caminera,
C         G      A
dadme unos sorbitos de agua.

BUENO AMI ME SUENA DE MARAvILLA .
Suggest correction
Give kudos to tab author, rate the tab!
1 2 3 4 5
comments
print report bad tab
guest
You may want to rate the tab now too:
select rating
Wanna post a correction for this tab? Suggest correction