Oops, an error
Loading. Please wait.

El Lobo Estepario Tab

65 views 1 this week
no commentswrite comment
1 2 3 4 5
3 more votes to show rating
add to favorites
launch autoscroll
font size
0
reset
how to read this tab
guitar tuner
Autoscroll
slow
fast
+/-
esc
set tempo
stop
Help us to improve Ultimate-Guitar.com Take our survey!
×
bueno ps como de esta rola solo faltaba
el punteo porqe los acordes ya estan
muy bien ps aqui esta.......

Solo

/----------------------------------------------------------------/
/----------10------10--------------------------------------------/
/--11~~9h11--11-9----11-9--9h11~~--------9------------9----------/
/----------------11------11------9-11-12---12-11-9-12---12-11-9--/
/----------------------------------------------------------------/
/----------------------------------------------------------------/

/----------------------------------------------------------------/
/------------10--------------------------------------------------/
/--------9-11--11~-11b-9---9-11b--9--9---------------------------/
/--11-12-----------11b---11--11b---11--12-11-9-11-12-11-9-11-12--/
/---------------------------------------......................---/
/----------------------------------------------------------------/

/--------------------/----------------------10-10-----9-9-9------/
/--------------------/---------------------------10-10-----------/
/-9~-7h9h11~-9h11~~~-/-9-11-11-11-9-11-11-11---------------9h11~-/
/--------------------/-------------------------------------------/
/--------------------/-------------------------------------------/
/--------------------/-------------------------------------------/
    Fin del Solo                Intro Puenteo Opcional
                                         x2

Outro

/--------------------------------------------12h14b~~~~----------/
/-7-7-7~~~~~-10~~-12~~-7-7-7-~~~~-10-~~-12~~---------------------/
/----------------------------------------------------------------/
/----------------------------------------------------------------/
/----------------------------------------------------------------/
/----------------------------------------------------------------/


ahora eso seria toda la cancion solo faltaria qe
califiqen a ver qe tal ya qe es la 1ra tablatura
qe pongo aqui.... saludos a todos los punks!!!
Suggest correction
Give kudos to tab author, rate the tab!
1 2 3 4 5
comments
print report bad tab
guest
You may want to rate the tab now too:
select rating
Wanna post a correction for this tab? Suggest correction