Oops, an error
Loading. Please wait.

Escupiré Jodidos Tab

65 views 1 this week
no commentswrite comment
1 2 3 4 5
3 more votes to show rating
add to favorites
launch autoscroll
font size
0
reset
how to read this tab
guitar tuner
Autoscroll
slow
fast
+/-
esc
set tempo
stop
Help us to improve Ultimate-Guitar.com Take our survey!
×
INTRO:
C  G  F  A

Verso1:
C          G        F        A
No penseis jodidos  K esto a  terminado
Se k  estoy cansado pero no he acabado
Y aunk nos os importe me tengo k desaogar
Mi asco de saliva os la voy a hacer probar

Puente:
F              G              A
Eskupire ante vuestros gestos de buena voluntad
Eskupire ante vuestras caras de gente muy formal
Eskupire ante vuestras leyes k no me dan el pan
Y aunk me tire a mi de un golpe no me vereis llorar

Estribillo:
C        A                  G                     F
Cuidense,aun no me he caido,no lo han conseguido solo estoy herido
Cuidense,aun no me he caido,no lo han conseguido solo estoy herido

Solo1:
B|---------------------------------------------------------------------------|
E|------------------------------------------------6/8-6-5-6-5----------------|
G|-5/7--5-5-4-5*---5-4---------------5-7-5--------------------7-5*-----------|
D|---------------------7-5-5-7-5---7-------7-5-------------------------------|
A|---------------------------------------------------------------------------|
E|---------------------------------------------------------------------------|
Solo 2:
B|--------------------------------10p8----10p8----10p8------------------------|
E|-----------13-13-13-13-15-13--------10p8----10p8----10p8---6/8-6-5-6-5------|
G|-5-5-5-5---12-12-12-12-14-12-------------------------------------------7-5*-|
D|----------------------------------------------------------------------------|
A|----------------------------------------------------------------------------|
E|----------------------------------------------------------------------------|


Verso2:
C         G        F         A
Mire en las paredes aun quedan letreros
de algunos que han muerto por vivir un seño
Y aqui no hay salida para soñadores
A menos que sueñen a la sombra de un cipres

Intro X 2
Verso1 X 4
Puente X 4
Estribillo X2
Solo1 X1 --] la 2a guitarra ace la parte del intro X2
Verso2 X4
Puente X4
Estribillo X2
Solo1 X1 --] la 2a guitarra ace la parte del intro X2
Solo2 x1 --] la 2a guitarra ace la parte del intro X2
Estribillo X2
Termina en F


Visita mi blog: 
Suggest correction
Give kudos to tab author, rate the tab!
1 2 3 4 5
comments
print report bad tab
guest
You may want to rate the tab now too:
select rating
Wanna post a correction for this tab? Suggest correction