Oops, an error
Loading. Please wait.

Escupiré Jodidos Bass Tab

119 views 3 this week
no commentswrite comment
1 2 3 4 5
3 more votes to show rating
add to favorites
launch autoscroll
font size
0
reset
guitar tuner
×
Best way to learn
"Escupiré Jodidos"
Autoscroll
slow
fast
+/-
esc
set tempo
stop
Wueno este es mi primer transcripcion.. de esta pagina
yo siempre saque un monton de tabs.. asi que hoy en dia quiero
devolverle algo jaja con este:
Escupire jodidos

INTRO:
1--------------------------------
2--------------------------------   x2
3----3-3...-------------0-0...---
4----------3-3...-1-1...---------

No penseis jodidos...
1--------------------------------
2--------------------------------   x4
3----3-3...-------------0-0...---
4----------3-3...-1-1...---------

Eskupire ante vuestros...
1------------------
2------------------  x4
3--------------0...
4----1...-3...-----

Cuidense...
1--------------------------
2--------------------------  x2
3----3...-0...-------------
4--------------3...-1...---

Despues se repite todo

y al final......... solo estoy, solo estoy
1-------------
2-------------
3-------------
4----1...-----

Bajista de enterrados... aguante el punk de españa
Suggest correction
Give kudos to tab author, rate the tab!
1 2 3 4 5
comments
print report bad tab
guest
You may want to rate the tab now too:
select rating
Wanna post a correction for this tab? Suggest correction