Oops, an error
Loading. Please wait.

Fornicare Est Pecatum Tab

74 views 1 this week
no commentswrite comment
1 2 3 4 5
3 more votes to show rating
add to favorites
launch autoscroll
font size
0
reset
how to read this tab
guitar tuner
×
Best way to learn
"Fornicare Est Pecatum"
Autoscroll
slow
fast
+/-
esc
set tempo
stop
Bueno aqui les dejo el solo de este tema..

SOLO

E-----------------------------------------
B-----------------------------------------
G----------9h11-9------11-11b-11h9-9------
D------9h11-------11-11--------------11---
A--9h11-----------------------------------
E-----------------------------------------

E----------------------------------------------
B----------9h10-9------------------------------
G------9h11-------11-9--------------9-11-9-----
D--9h11----------------11-9---9-11-------------
A---------------------------11-----------------
E----------------------------------------------

ESTO LO HACEN 2 VECES

E----------------------------------------------
B--12H9-9--12H9-9--12H9-9--12H9-9-10-9---------
G--------------------------------------11-9----
D----------------------------------------------
A----------------------------------------------
E----------------------------------------------

Y EN LA TERCERA SOLO HACEN ESTO

E-----------------------------------------------------------------
B--12H9-9--12H9-9--12H9-9--12H9-9-10-9----------------------------
G--------------------------------------11-9----------9-11-9-------
D-------------------------------------------11--9-11--------9-11--
A-----------------------------------------------------------------
E-----------------------------------------------------------------


BUENO ESO ES TODO ESPERO QUE LES SIRVA ESTA TODO PERFECTO CUALQUIER
DUDA ME ESCRIBEN A MI MAIL riverp_93@
Suggest correction
Give kudos to tab author, rate the tab!
1 2 3 4 5
comments
print report bad tab
guest
You may want to rate the tab now too:
select rating
Wanna post a correction for this tab? Suggest correction