Oops, an error
Loading. Please wait.

Hachis Tab

107 views 3 this week
no commentswrite comment
1 2 3 4 5
3 more votes to show rating
add to favorites
×
Save as Personal and add changes to this tab that will be seen only by you. Learn more ›
×
You can save this tab as Personal to edit and correct it or add notes. All changes will be seen only by you. Learn more »
save as personal
new!
launch autoscroll
font size
0
reset
how to read this tab
guitar tuner
Autoscroll
slow
fast
+/-
esc
set tempo
stop
e-----------------------------------
b-----------------------------------
G--7b~~~7r-5-7p5-7p5-7p5-7p5--7p5-7-
D---------------7---7---7---7-------
A-----------------------------------
E-----------------------------------


e------8-7--------8-7--8-7---8-7----8-7---8-7--
b-8~-8-----8-8--8----8-----8-----8------8----8-
G----------------------------------------------
D----------------------------------------------
A----------------------------------------------
E----------------------------------------------


e-----------------------------------------------
B--10P8---8---8-10b--8-10P8--8-8-10b-10b-10r--8-
G-------9---9-------9-------9-9--------------9--
D-----------------------------------------------
A-----------------------------------------------
E-----------------------------------------------

e---8-7--8-7--8-7---8-7--8-7-------------------------10b-10b-8--
B-8----8----8-----8----8----8---10p8-10p8-10p8-10p8-------------
G---------------------------------------------------------------
D---------------------------------------------------------------
A---------------------------------------------------------------
E---------------------------------------------------------------


e---------------------10b-------------8-7---8-7---8-7---------------
B-10P8-10P8-10P8-10P8-----10b----8--8-----8-----8-----8-10-8---8~~--
G------------------------------9-----------------------------9------
D-------------------------------------------------------------------
A-------------------------------------------------------------------
Suggest correction
Give kudos to tab author, rate the tab!
1 2 3 4 5
comments
print report bad tab
guest
Wanna post a correction for this tab? Suggest correction