Oops, an error
Loading. Please wait.

Hijos De La Grandisima Perra chords

29 views 1 this week
no commentswrite comment
1 2 3 4 5
3 more votes to show rating
add to favorites
×
Save as Personal and add changes to this tab that will be seen only by you. Learn more ›
×
You can save this tab as Personal to edit and correct it or add notes. All changes will be seen only by you. Learn more »
launch autoscroll
font size
0
reset
transpose
0
reset
simplify chords
display chords
guitar tuner
edit
Autoscroll
slow
fast
+/-
esc
set tempo
stop
Strumming
There is no strumming pattern for this song yet. and get +5 IQ
INTRO:

los acordes son estos sacar vosotros el ritmo

E6-D6-C6-B6
LICK-


D||-------------------------------
A||---------------------2----5----
E||--3----3----3---5--------------


Vamos a ver si entendemos de una puta vez
que es lo indecente y lo que no lo es.
Cuestión sencilla de averiguar,
solo los muertos hay que contar.

En este trozo se toca esto:

G||------------x----x------x----x----5----5------x----x----x----x----|
D||--2----2----x----x------x----x----5----5------x----x----x----x----|
A||--2----2----x----x------x----x----3----3------x----x----x----x----|
E||--0----0----x----x------x----x----------------x----x----x----x----|

G||------------x----x------x----x----7----7------x----x----x----x----|
D||--2----2----x----x------x----x----7----7------x----x----x----x----|
A||--2----2----x----x------x----x----5----5------x----x----x----x----|
E||--0----0----x----x------x----x----------------x----x----x----x----|

G||------------x----x------x----x----5----5------x----x----x----x----|
D||--2----2----x----x------x----x----5----5------x----x----x----x----|
A||--2----2----x----x------x----x----3----3------x----x----x----x----|
E||--0----0----x----x------x----x----------------x----x----x----x----|

Esto se repite 2 veces, la primera vez que se repite el final es este
Es un punteo, pero lo podeis hacer con acordes: G5-65-X-X-X-X-D-C-B-C
A segunda es G5-G5-E6-D5

SE REPITE EL RIFF Y EL LICK DE LA INTRO

Mi situación es que soy joven y viril,
no pienso en nada y solo quiero formicar.

PalmMute: E-C-G-B x2

Kuando termine la frase es otro lick:
Acorde D5 y
PUNTEO: A-A-B-C-B
Se hace con slide.

Kreo ke es un punteo, aunque no se si estará bien.
Intentalo tb kon acorde de quintas.

En mi trabajo no es que me paguen muy bien,
la vida esta muy cara y no me puedo emancipar.

PalmMute: E-C-G-B x2
D5
C5-C5-B5-C5-D5
Se hace con slide

Y si a una mala hay un descuido
y los condones que llevaba se han fundido,

PalmMute: E-C-G-B-x2
D5
PUNTEO: A-A-B-C-B

ahora ¿que hacemos?, ¿a donde vamos?,
depende lo que hagamos estaremos condenados.


PalmMute: E-C-G-B
D5
C5-C5-B5-C5-D5

Indecente, los condones dice el Papa son indecentes
Indecentes, dice el Papa que el aborto es indecente

ESTE TROCILLO SE HACE CON LOS ACORDES DE LA INTRO
E-D-C-B

Dime quien es aquel que mata por amor,
quien ha quemado a fuego lento por su Dios.

PalmMute: E-C-G-B-x2
D5
PUNTEO: A-A-B-C-B

A los que en su momento se atrevieron a pensar
que el mundo era redondo y que la muerte era el final.

PalmMute: E-C-G-B
D5
C5-C5-B5-C5-D5

Dime quien es aquel que mata por la paz
y el bienestar del mundo libre.
Miente.

PalmMute: E-C-G-B-x2
D5
PUNTEO: A-A-B-C-B

Pues lo que quiere es el petróleo nada más,
para venderlo al superviviente.

PalmMute: E-C-G-B
D5
C5-C5-B5-C5-D5

SE REPITE DOS VECES
G5-G5-G5-G5-C5-C5/B-C-C
G5-G5-G5-G5-D5-D5/C5-D5-D5


E5-E6-D5
E5-X-X-X-X-E6-D5


Hijos de la grandísima perra,
siempre esperando el momento
para  colgarnos el muerto.
Hijos de la grandísima perra,
¿quien manipula la gente?,
¿quien es aquí el indecente?.

G5-G5-G5-G5-C5-C5/B-C-C
G5-G5-G5-G5-D5-D5/C5-D5

E5-E6-D5

2a Vez:
E5-X-X-X-X-E6-D5

Solo WAPISIMO, QUE NO PUEDO SAKAR

Se toca como en el estribillo cuando Evaristo y Rberto paran de
 cantar se toca esto

E5-E5-X-X-X-X-C5-C5

E5-E5-X-X-X-X-D5-D5

E5-E5-X-X-X-X-C5-C5

G5-G5-X-X-X-X-C5-C5

FIN

ALE, KREO KE EL 90% ESTA BIN, SI TENEIS ALGUN PROBLEMA DE LEKTURA 
O ALGO ME ENVIAIS UN EMAIL.
ACLARACIONES: Las X (APAGAR SONIDO KN LA MANO IZQUIERDA) 
se representan asi tabuladamente: lo que pasa es que no he 
querido ponerlo asi por comodidad, jeje.
Pero espero que se entienda bien.

G||--x----x----x----x----|
D||--x----x----x----x----|
A||--x----x----x----x----|
E||--x----x----x----x----|

Los links estan sacados de oida, algunos estan bien, pero creo, 
que se puede tocar bien asi.
Salud i punk´s not deat.

            
            
Suggest correction
Creating personal tab
Creating personal tab
You can edit any tab online and save it as your Personal.

You can edit, replace or remove any tab part or add personal notes – all changes will be seen only by you.

Personal tabs can be accessed anytime from any device, even offline.
Learn more »
Give kudos to tab author, rate the tab!
1 2 3 4 5
comments
print report bad tab
guest
Wanna post a correction for this tab? Suggest correction