Oops, an error
Loading. Please wait.

Hijos De La Grandisima Perra Tab

26 views 1 this week
no commentswrite comment
1 2 3 4 5
3 more votes to show rating
add to favorites
launch autoscroll
font size
0
reset
how to read this tab
guitar tuner
Autoscroll
slow
fast
+/-
esc
set tempo
stop
Help us to improve Ultimate-Guitar.com Take our survey!
×
ahora les dejo el solo de esta pinche rola
qe me pasa un friego bueno aqui esta......

Solo
Hijos de la Grandisima Perra

e|-----------------------------------7-10-8-7----8-7------8-7-------
B|--11b~~-11b-10-8------------7-8-10---------10-----10-8-----10-8---
G|-----------------9~-----7-9---------------------------------------
D|--------------------7-9-------------------------------------------
A|--------------------..............--------------------------------
E|------------------------------------------------------------------


e|--10h12-10-8-7-8--------------12b---------------------------------
B|------------------11b-10-8--------13-12-15-13-12------------------
G|---------------------------9---------------------14-12------------
D|------------------------------------------------------------------
A|------------------------------------------------------------------
E|------------------------------------------------------------------


aqui no estoy tan seguro pero suena bien...
e|----------------------------------------------------------------------
B|-------------------------------------------------------- 12h13-12-----
G|-11s12-12-12-11-12-11s12-12-12-11-14-12-11s12-12-12-11-12--------14-12
D|-11s12-12-12-11-12-11s12-12-12-11-14-12-11s12-12-12-11-12-------------
A|----------------------------------------------------------------------
E|----------------------------------------------------------------------


e|-12b~~15-----14---------------------------------------------------
B|--------15-12--15-12-15h17--15b-----------------------------------
G|--------------------------------14-12-11-12~~~--------------------
D|------------------------------------------------------------------
A|------------------------------------------------------------------
E|------------------------------------------------------------------

ps aqui fue espero les guste saludos a todos
los qe le guste EUKZ y califiquen no les deje los acordes
porqe ya estan y se sacan rapido adios punks......
Suggest correction
Give kudos to tab author, rate the tab!
1 2 3 4 5
comments
print report bad tab
guest
You may want to rate the tab now too:
select rating
Wanna post a correction for this tab? Suggest correction