Oops, an error
Loading. Please wait.

Llueva Bass

43 views 1 this week
no commentswrite comment
1 2 3 4 5
3 more votes to show rating
add to favorites
launch autoscroll
font size
0
reset
guitar tuner
×
Best way to learn
"Llueva"
Autoscroll
slow
fast
+/-
esc
set tempo
stop
Aki va:

Empieza sin bajo:

 No me diga que falta alegría.
 No me diga que falta energía.
 No me atxutxe igual que a su perro.
 No me diga que ya lo sabía

 Estribillo:
------------------------------------------
------------------------------------------
----------------------------------3-3----3
-1--1--1--1--1--1--3--3--3--3--3----------

 Ke hay día que no me levantaría.
 Hay día que me sobra hasta la vida, mí vida.
 Hay día que no me levantaría.
 Hay día que le quitaría la vida, su vida

AHORA AZE KOMO ARPEGIO ASI:

---9----10---5---------
--9----10---5-----5----
-7----8----3-----5-----
----------------3------

  No me cuente lo que ha trabajado.
  No me importa que ha sacrificado.
  No me hable igual que a su hijo.
  Yo nunca quise ser como usted


 Estribillo

 Ahora va el solo de guitara


*ESta parte es diferente:

------------------------------
------------------------------
--3-3-------------------------
---------0-0----1-1----3-3----

Son mejores las mañanas en los fines de semana.
Qué bien se está en la cama hasta que duele la espalda!
Son mejores las mañanas en los fines de semana,
Aunque llueva!¡Aunque llueva!¡Aunque llueva!Pues ke llueva! x2

Pues ke llueva!

Si teneis alguna duda me mandais un e-mail!
Au salut i força al kanut!!!
Suggest correction
Give kudos to tab author, rate the tab!
1 2 3 4 5
comments
print report bad tab
guest
You may want to rate the tab now too:
select rating
Wanna post a correction for this tab? Suggest correction