Oops, an error
Loading. Please wait.

Navajazos Por Un Chandal Tab

28 views 3 this week
no commentswrite comment
1 2 3 4 5
3 more votes to show rating
add to favorites
launch autoscroll
font size
0
reset
how to read this tab
guitar tuner
×
Best way to learn
"Navajazos Por Un Chandal"
Autoscroll
slow
fast
+/-
esc
set tempo
stop
Esta es la canción Full


Navajazos Por un Chándal


Intro
|-----------------------------------------------|
|---------8------8---7------12-------12-12------| Los 7. son Muteados
|-7-7.-7.---7.-7.--7.--7.-7.----7.-7.-----------|
|-----------------------------------------------|X4
|-----------------------------------------------|
|-----------------------------------------------|


|-----------------------------------------------------------------------|
|-----------------------------------------------------------------------|
|-11------11--14--12--11-------14--12--11-9---9-11-9-12-11-----11-12-14-|
|----12~-----------------12~-------------------------------12-----------|
|-----------------------------------------------------------------------|
|-----------------------------------------------------------------------|

   D (PM)
|-----------------------------------------------------------------------|
|-----------------------------------------------------------------------|
|-11------11--14--12--11-------14--12--11-9---9-11-9-12-11-----11-12-14-|
|----12~-----------------12~-------------------------------12-----------|
|-----------------------------------------------------------------------|
|-----------------------------------------------------------------------|

  D  A   G F# E   X4

D                    A     G                 F#    E
Ya no piensan los obreros como pensaban los abuelos,
y se quitan el sombrero cuando pasa el usurero.
Luego dicen que es mentira, luego dicen que no olvidan,
pero nunca hay desacato que no mande el sindicato.


D                        A
   Es muy duro ser obrero
G                        F#  E
 y sentirse como un perro,
D                        A
siempre perdonando al amo
G                        F#  E
malos tratos, malos platos.
G          F#       E
malos tratos, malos platos.
G          F#       E
malos tratos, malos platos.
G          F#       E
malos tratos, malos platos.

G  F#

D                    A     G                 F#    E
Y por todos es sabido que hubo sangre derramada
pero todo se ha perdido, hubo sangre para nada.
Ahora luchan entre ellos,cuando llegan las rebajas
se disputan las migajas. Navajazos por un chándal.

D                        A
Ya no quiero ser obrero,
G                        F#  E
ni trabajar 'pal' usurero,
D                        A
ni sentirme como un perro,
G                        F#  E
cuando me quito el sombrero
G          F#       E
cuando me quito el sombrero
G          F#       E
cuando me quito el sombrero
G          F#       E
cuando me quito el sombrero

|-15-------15-------15-----15--------|
|----15-------15------15-----15------|
|-------14-------14-----14-----14----| x2
|------------------------------------|
|------------------------------------|
|------------------------------------|

|-------15----15---------------------15----15------------|
|-15-15----15----15-15---------15-15----15----15-15------|
|----------------------14-14-----------------------14-14-|
|--------------------------------------------------------|
|--------------------------------------------------------|
|--------------------------------------------------------|

|-------15----15------------------|
|-15-15----15----15-15---------15-|
|----------------------14-14------|
|---------------------------------|
|---------------------------------|
|---------------------------------|

Cualquier cosa, agradecimientos, agarrarme a chuchas, peticiones de matrimonio
a edorockandroll@

:D
Suggest correction
Give kudos to tab author, rate the tab!
1 2 3 4 5
comments
print report bad tab
guest
You may want to rate the tab now too:
select rating
Wanna post a correction for this tab? Suggest correction