Oops, an error
Loading. Please wait.

Por Domesticar Tab

31 views 1 this week
no commentswrite comment
1 2 3 4 5
3 more votes to show rating
add to favorites
launch autoscroll
font size
0
reset
how to read this tab
guitar tuner
Autoscroll
slow
fast
+/-
esc
set tempo
stop
Help us to improve Ultimate-Guitar.com Take our survey!
×
intro:
          F                              Am
E||---1----1--1-1--1-1--1-1-1-1-|--0----0--0-0--0-0--0-0-0-0--||
B||---1----1--1-1--1-1--1-1-1-1-|--1----1--1-1--1-1--1-1-1-1--||
G||*--2----2--2-2--2-2--2-2-2-2-|--2----2--2-2--2-2--2-2-2-2-*||
D||*--3----3--3-3--3-3--3-3-3-3-|--2----2--2-2--2-2--2-2-2-2-*||
A||-----------------------------|-----------------------------||
E||-----------------------------|-----------------------------||

//--------------------------|--------------------------|
//--------------------------|--------------------------|
//--------------------------|--------------------------|
//-------7----10------------|-------------9------------|
//--8-----------------------|--7----10-----------------|
//--------------------------|--------------------------|

F                   Am
Ya viví lo suficiente para ser domesticado
pero no me han enseñado a ser maduro.

Y me hago pajas en las noches que voy caliente y ciego
para no acabar en brazos de algún amor comprado,

porque cada noche sueño que acabo
enamorado de algún amor extraño.

F5              A5
No me da la gana escuchar esa canción,
F5                       A5                  F5
no soporto los recuerdos que me ablandarán en mis sucias noches
A5                F5    G5    A5                        F5    G5    A5
o en las madrugadas           en las que me enfrento al sol.

Que duelen al respirar, ¡Son tantos olores!
El viento de otoño y en otoño oler la mar,
el romero, las chimeneas y el olor a callejón.

Yo que cada noche sueño que acabo enamorado de algún amor extraño.
Me hago pajas en las noches que voy caliente y ciego
para no acabar en brazos de algún amor comprado.


-----------------------|-------------------------------|
--12g13----------------|--13g12------------------------|
-----------------------|-----------14--12--------------|
-----------------------|------------------14-----------|
-----------------------|-------------------------------|
-----------------------|-------------------------------|

-------------------------------------|---------------------------------|
-------------------------------------|---------------------------------|
-------------------------------------|---------------------12----------|
--14g15--14--12-----12--14------12---|--15--14--12-----12--------------|
-----------------14------------------|--------------14-----------------|
-------------------------------------|---------------------------------|
Suggest correction
Give kudos to tab author, rate the tab!
1 2 3 4 5
comments
print report bad tab
guest
You may want to rate the tab now too:
select rating
Wanna post a correction for this tab? Suggest correction