Oops, an error
Loading. Please wait.

Skizofreniko Bajo El Sol Tab

19 views 1 this week
no commentswrite comment
1 2 3 4 5
3 more votes to show rating
add to favorites
launch autoscroll
font size
0
reset
how to read this tab
guitar tuner
×
Best way to learn
"Skizofreniko Bajo El Sol"
Autoscroll
slow
fast
+/-
esc
set tempo
stop
INTRO 1

e-----------------------------------------
b-----------------------------------------
g-------------------------------10p9------
d--10-10-9-x-7-x-5--10-10-9-x-7------10-9-(4X)
a-----------------------------------------
E-----------------------------------------

INTRO 2
e-----------------------------------------
b---------------------------------------------
g---------9h10p9------------------------------
d--7-9-10--------10-9--(2X)----7-9-10-9h10p9--
a---------------------------------------------
E---------------------------------------------

A     G     F                 G
adonde vas parece ke despiertas
adonde vas la kalle está desierta
ya ni las ratas buskan en la basura
y no hay lugar ke admita tu lokura

A    C   G
F                    G
el sol me está kemando
el sol me está ensuciando
el sol me está kemando

e-----------------------------------------
b-----------------------------------------
g---------9h10p9--------------------------
d--7-9-10--------10-9------7-9-10-9h10p9--
a-----------------------------------------
E-----------------------------------------


A     G     F                 G
adonde fui apenas lo rekuerdo
lo ke tomé,joder lo tomé todo
no keda nada dentro de mis bolsillos
dentro de mi JA! pregunta a mis amigos

A    C   G
F                    G
el sol me está jodiendo
el sol me está matando
el sol me está jodiendo

AA  G  FF GG(X2)

d---7------5---5-----3-----5---5--------
a---------------------------------------
E-5---5--3---3---3-1---1-3---3----------

estos versos se acompañan con el punteo de aki arriba
menos los trozos señalados con el acorde correspondiente

vamonos yo te llevaré a un lugar
              F                    G
donde deskansan otros tantos komo tú

vamonos alguien te está esperando
        F                        G
tu sabrás,dejaste algo por pagar.

(punteo)el punteo aun lo estoy sacando
lo sento

se toka como la intro 2
vamonos y honremos a los muertos(x4)

vamonoooos

si teneis alguna duda o lo k sea me agregais
SALUDOS!!!
Suggest correction
Give kudos to tab author, rate the tab!
1 2 3 4 5
comments
print report bad tab
guest
You may want to rate the tab now too:
select rating
Wanna post a correction for this tab? Suggest correction