Oops, an error
Loading. Please wait.

Soldadito Español Tab

version 2
version 2

Whole song

28 views 1 this week
no commentswrite comment
1 2 3 4 5
3 more votes to show rating
add to favorites
launch autoscroll
font size
0
reset
how to read this tab
guitar tuner
×
Best way to learn
"Soldadito Español"
Autoscroll
slow
fast
+/-
esc
set tempo
stop
Intro 
-----
D A# F C

Estrofa
-------
D                        A#
Todas las mañanas cuando suena la corneta
   F                    C
me toca levantarme y coger una escopeta


     D                      A#                   
Tu Escuchame recluta esto no es una escopeta
   F                          C                         
es un fusil de asalto y ya me tienes mas que harto


D                         A#                   
Yo si que estoy harto de este fusil de asalto
      F                   C                          
llevo ya tres semanas y estoy que no me aguanto
  D                        A#                       
y tú quE te has creido con tanta presuncion
   F                        C                      
Te callas o te arresto y te vas a prevencion


Estribillo:
----------

D         A#
Soldadito español,
  F         C
olvídate de tu misión 
D           A#
y no sufras cara el Sol,
F     C
grita: ¡Insumisión!

Solo 1:(LOS AKORDES DE LOS SOLOS SON LOS MISMOS DE LA KANCION)
------

E|-----------10----------------------------------------------------|
B|--10-10-10----10----------10-------------------------10----------|
G|-----------------10-10-10----10----10----12b10-12-12----12-10-12-|
D|--------------------------------10----10-------------------------|
A|-----------------------------------------------------------------|
E|-----------------------------------------------------------------|

Solo 2:
-------

E|-------------------------------------------------------------------|
B|-------------------------------------------------------------------|
G|--10-------------10-------------10----------------------10-12b10---|
D|-----12-12~10-12----12-12~10-12----12-10----------10-12----------12|
A|-----------------------------------------12-10-12------------------|
E|-------------------------------------------------------------------|

E|---------------------------------------------------------------------|
B|-10h11-10h11-10h11-10h11-10h11----------------------------------------|
G|-------------------------------12-10h12-10h12-10h12-10h12-10h12-12-10-|
D|----------------------------------------------------------------------|
A|----------------------------------------------------------------------|
E|----------------------------------------------------------------------|

E|----------------------------------------------------------|
B|----------------------------------------------------------|
G|----------------10-------------10-12b10-------10b---------|
D|-12-10----10-12----12-12-10-12----------10-12----12-10-12-|
A|-------12-------------------------------------------------|
E|----------------------------------------------------------|
Suggest correction
Give kudos to tab author, rate the tab!
1 2 3 4 5
comments
print report bad tab
guest
You may want to rate the tab now too:
select rating
Wanna post a correction for this tab? Suggest correction