Oops, an error
Loading. Please wait.

Soldadito Español Chords

16 views 1 this week
no commentswrite comment
1 2 3 4 5
3 more votes to show rating
add to favorites
launch autoscroll
font size
0
reset
transpose
0
reset
simplify chords
display chords
guitar tuner
×
Best way to learn
"Soldadito Español"
Autoscroll
slow
fast
+/-
esc
set tempo
stop
BATERIA SOLAMENTE

Cuando vayas por el campo,
no pises las amapolas,
que están regadas con sangre
de la infantería española.

LUEGO TOCAS ESTO: D5   A#5   F5   C5


D5                        A#5
Todas las mañanas cuando suena la corneta,
F5                   C5
me toca levantarme y coger una escopeta.

D5                              A#5
Tu Escúchame recluta esto no es una escopeta,
F5                            C5
es un fusil de asalto y ya me tienes más que harto.

D5                        A#5
Yo si que estoy harto de este fusil de asalto,
F5                       C5
llevo tres semanas y estoy que no me aguanto,

D5                       A#5
y tú ¿qué te has creido? Con tanta presunción.
F5                         C5
Te callas o te arresto y te vas a prevención.


D5        A#5
Soldadito español,
F5          C5
olvídate de tu misión
D5          A#5
y no sufras cara el Sol,
F5    C5
grita: ¡Insumisión!


TOKAS ESTAS NOTAS EN EL SOLO:  D5   A#5   F5   C5


AKI VA EL SOLO

E|-----------10----------------------------------------------------|
B|--10-10-10----10----------10-------------------------10----------|
G|-----------------10-10-10----10----10----12b10-12-12----12-10-12-| X2
D|--------------------------------10----10-------------------------|
A|-----------------------------------------------------------------|
E|-----------------------------------------------------------------|


Dejaste en tu pueblo a unos buenos colegas,
dejaste a tu vieja y a tu compañera,


D5          A#5
y todo esto para terminar,
F5                 C5
en su hipocresía y con tanta tontería.

D5
Cuando vayas por el campo,
A#5
no pises las amapolas,

F5
que están regadas con sangre
C5
de la infantería española.

D5
Cuando vaya por el campo,
A#5
pisaré las amapolas,

F5
que están regadas con sangre
C5
de la hipocresía española.

D5        A#5
Soldadito español,
F5          C5
olvídate de tu misión

D5          A#5
y no sufras cara el Sol,
F5    C5
grita: ¡Insumisión!

SIGUES CON ESTAS EN EL SOLO: D5   A#5   F5   C5


E|-------------------------------------------------------------------|
B|-------------------------------------------------------------------|
G|--10-------------10-------------10----------------------10-12b10---|
D|-----12-12~10-12----12-12~10-12----12-10----------10-12----------12|
A|-----------------------------------------12-10-12------------------|
E|-------------------------------------------------------------------|

E|---------------------------------------------------------------------|
B|-10h11-10h11-10h11-10h11-10h11----------------------------------------|
G|-------------------------------12-10h12-10h12-10h12-10h12-10h12-12-10-|
D|----------------------------------------------------------------------|
A|----------------------------------------------------------------------|
E|----------------------------------------------------------------------|

E|----------------------------------------------------------|
B|----------------------------------------------------------|
G|----------------10-------------10-12b10-------10b---------|
D|-12-10----10-12----12-12-10-12----------10-12----12-10-12-|
A|-------12-------------------------------------------------|
E|----------------------------------------------------------|

saludos pa toos los PunkRockers


esta es mi primera transcripcion
asi ke cualkier kosa
devasone4@

Punkrlos !!!

xau !
Suggest correction
Give kudos to tab author, rate the tab!
1 2 3 4 5
comments
print report bad tab
guest
You may want to rate the tab now too:
select rating
Wanna post a correction for this tab? Suggest correction